  0
SECTION
  2
HEADER
  9
$ACADVER
  1
AC1024
  9
$ACADMAINTVER
 70
   226
  9
$DWGCODEPAGE
  3
ANSI_1252
  9
$INSBASE
 10
0.0
 20
0.0
 30
0.0
  9
$EXTMIN
 10
1.000000000000000E+20
 20
1.000000000000000E+20
 30
1.000000000000000E+20
  9
$EXTMAX
 10
-1.000000000000000E+20
 20
-1.000000000000000E+20
 30
-1.000000000000000E+20
  9
$LIMMIN
 10
0.0
 20
0.0
  9
$LIMMAX
 10
12.0
 20
9.0
  9
$ORTHOMODE
 70
     0
  9
$REGENMODE
 70
     1
  9
$FILLMODE
 70
     1
  9
$QTEXTMODE
 70
     0
  9
$MIRRTEXT
 70
     0
  9
$LTSCALE
 40
1.0
  9
$ATTMODE
 70
     1
  9
$TEXTSIZE
 40
0.2
  9
$TRACEWID
 40
0.05
  9
$TEXTSTYLE
  7
Standard
  9
$CLAYER
  8
0
  9
$CELTYPE
  6
ByLayer
  9
$CECOLOR
 62
   256
  9
$CELTSCALE
 40
1.0
  9
$DISPSILH
 70
     0
  9
$DIMSCALE
 40
1.0
  9
$DIMASZ
 40
0.18
  9
$DIMEXO
 40
0.0625
  9
$DIMDLI
 40
0.38
  9
$DIMRND
 40
0.0
  9
$DIMDLE
 40
0.0
  9
$DIMEXE
 40
0.18
  9
$DIMTP
 40
0.0
  9
$DIMTM
 40
0.0
  9
$DIMTXT
 40
0.18
  9
$DIMCEN
 40
0.09
  9
$DIMTSZ
 40
0.0
  9
$DIMTOL
 70
     0
  9
$DIMLIM
 70
     0
  9
$DIMTIH
 70
     1
  9
$DIMTOH
 70
     1
  9
$DIMSE1
 70
     0
  9
$DIMSE2
 70
     0
  9
$DIMTAD
 70
     0
  9
$DIMZIN
 70
     0
  9
$DIMBLK
  1

  9
$DIMASO
 70
     1
  9
$DIMSHO
 70
     1
  9
$DIMPOST
  1

  9
$DIMAPOST
  1

  9
$DIMALT
 70
     0
  9
$DIMALTD
 70
     2
  9
$DIMALTF
 40
25.4
  9
$DIMLFAC
 40
1.0
  9
$DIMTOFL
 70
     0
  9
$DIMTVP
 40
0.0
  9
$DIMTIX
 70
     0
  9
$DIMSOXD
 70
     0
  9
$DIMSAH
 70
     0
  9
$DIMBLK1
  1

  9
$DIMBLK2
  1

  9
$DIMSTYLE
  2
Standard
  9
$DIMCLRD
 70
     0
  9
$DIMCLRE
 70
     0
  9
$DIMCLRT
 70
     0
  9
$DIMTFAC
 40
1.0
  9
$DIMGAP
 40
0.09
  9
$DIMJUST
 70
     0
  9
$DIMSD1
 70
     0
  9
$DIMSD2
 70
     0
  9
$DIMTOLJ
 70
     1
  9
$DIMTZIN
 70
     0
  9
$DIMALTZ
 70
     0
  9
$DIMALTTZ
 70
     0
  9
$DIMUPT
 70
     0
  9
$DIMDEC
 70
     4
  9
$DIMTDEC
 70
     4
  9
$DIMALTU
 70
     2
  9
$DIMALTTD
 70
     2
  9
$DIMTXSTY
  7
Standard
  9
$DIMAUNIT
 70
     0
  9
$DIMADEC
 70
     0
  9
$DIMALTRND
 40
0.0
  9
$DIMAZIN
 70
     0
  9
$DIMDSEP
 70
    46
  9
$DIMATFIT
 70
     3
  9
$DIMFRAC
 70
     0
  9
$DIMLDRBLK
  1

  9
$DIMLUNIT
 70
     2
  9
$DIMLWD
 70
    -2
  9
$DIMLWE
 70
    -2
  9
$DIMTMOVE
 70
     0
  9
$DIMFXL
 40
1.0
  9
$DIMFXLON
 70
     0
  9
$DIMJOGANG
 40
0.7853981633974483
  9
$DIMTFILL
 70
     0
  9
$DIMTFILLCLR
 70
     0
  9
$DIMARCSYM
 70
     0
  9
$DIMLTYPE
  6

  9
$DIMLTEX1
  6

  9
$DIMLTEX2
  6

  9
$DIMTXTDIRECTION
 70
     0
  9
$LUNITS
 70
     2
  9
$LUPREC
 70
     4
  9
$SKETCHINC
 40
0.1
  9
$FILLETRAD
 40
0.0
  9
$AUNITS
 70
     0
  9
$AUPREC
 70
     0
  9
$MENU
  1
.
  9
$ELEVATION
 40
0.0
  9
$PELEVATION
 40
0.0
  9
$THICKNESS
 40
0.0
  9
$LIMCHECK
 70
     0
  9
$CHAMFERA
 40
0.0
  9
$CHAMFERB
 40
0.0
  9
$CHAMFERC
 40
0.0
  9
$CHAMFERD
 40
0.0
  9
$SKPOLY
 70
     0
  9
$TDCREATE
 40
2460802.492928241
  9
$TDUCREATE
 40
2460802.659594908
  9
$TDUPDATE
 40
2460802.492928241
  9
$TDUUPDATE
 40
2460802.659594908
  9
$TDINDWG
 40
0.0000000000
  9
$TDUSRTIMER
 40
0.0000000000
  9
$USRTIMER
 70
     1
  9
$ANGBASE
 50
0.0
  9
$ANGDIR
 70
     0
  9
$PDMODE
 70
     0
  9
$PDSIZE
 40
0.0
  9
$PLINEWID
 40
0.0
  9
$SPLFRAME
 70
     0
  9
$SPLINETYPE
 70
     6
  9
$SPLINESEGS
 70
     8
  9
$HANDSEED
  5
153
  9
$SURFTAB1
 70
     6
  9
$SURFTAB2
 70
     6
  9
$SURFTYPE
 70
     6
  9
$SURFU
 70
     6
  9
$SURFV
 70
     6
  9
$UCSBASE
  2

  9
$UCSNAME
  2

  9
$UCSORG
 10
0.0
 20
0.0
 30
0.0
  9
$UCSXDIR
 10
1.0
 20
0.0
 30
0.0
  9
$UCSYDIR
 10
0.0
 20
1.0
 30
0.0
  9
$UCSORTHOREF
  2

  9
$UCSORTHOVIEW
 70
     0
  9
$UCSORGTOP
 10
0.0
 20
0.0
 30
0.0
  9
$UCSORGBOTTOM
 10
0.0
 20
0.0
 30
0.0
  9
$UCSORGLEFT
 10
0.0
 20
0.0
 30
0.0
  9
$UCSORGRIGHT
 10
0.0
 20
0.0
 30
0.0
  9
$UCSORGFRONT
 10
0.0
 20
0.0
 30
0.0
  9
$UCSORGBACK
 10
0.0
 20
0.0
 30
0.0
  9
$PUCSBASE
  2

  9
$PUCSNAME
  2

  9
$PUCSORG
 10
0.0
 20
0.0
 30
0.0
  9
$PUCSXDIR
 10
1.0
 20
0.0
 30
0.0
  9
$PUCSYDIR
 10
0.0
 20
1.0
 30
0.0
  9
$PUCSORTHOREF
  2

  9
$PUCSORTHOVIEW
 70
     0
  9
$PUCSORGTOP
 10
0.0
 20
0.0
 30
0.0
  9
$PUCSORGBOTTOM
 10
0.0
 20
0.0
 30
0.0
  9
$PUCSORGLEFT
 10
0.0
 20
0.0
 30
0.0
  9
$PUCSORGRIGHT
 10
0.0
 20
0.0
 30
0.0
  9
$PUCSORGFRONT
 10
0.0
 20
0.0
 30
0.0
  9
$PUCSORGBACK
 10
0.0
 20
0.0
 30
0.0
  9
$USERI1
 70
     0
  9
$USERI2
 70
     0
  9
$USERI3
 70
     0
  9
$USERI4
 70
     0
  9
$USERI5
 70
     0
  9
$USERR1
 40
0.0
  9
$USERR2
 40
0.0
  9
$USERR3
 40
0.0
  9
$USERR4
 40
0.0
  9
$USERR5
 40
0.0
  9
$WORLDVIEW
 70
     1
  9
$SHADEDGE
 70
     3
  9
$SHADEDIF
 70
    70
  9
$TILEMODE
 70
     1
  9
$MAXACTVP
 70
    64
  9
$PINSBASE
 10
0.0
 20
0.0
 30
0.0
  9
$PLIMCHECK
 70
     0
  9
$PEXTMIN
 10
1.000000000000000E+20
 20
1.000000000000000E+20
 30
1.000000000000000E+20
  9
$PEXTMAX
 10
-1.000000000000000E+20
 20
-1.000000000000000E+20
 30
-1.000000000000000E+20
  9
$PLIMMIN
 10
0.0
 20
0.0
  9
$PLIMMAX
 10
12.0
 20
9.0
  9
$UNITMODE
 70
     0
  9
$VISRETAIN
 70
     1
  9
$PLINEGEN
 70
     0
  9
$PSLTSCALE
 70
     1
  9
$TREEDEPTH
 70
  3020
  9
$CMLSTYLE
  2
Standard
  9
$CMLJUST
 70
     0
  9
$CMLSCALE
 40
1.0
  9
$PROXYGRAPHICS
 70
     1
  9
$MEASUREMENT
 70
     0
  9
$CELWEIGHT
370
    -1
  9
$ENDCAPS
280
     0
  9
$JOINSTYLE
280
     0
  9
$LWDISPLAY
290
     1
  9
$INSUNITS
 70
     1
  9
$HYPERLINKBASE
  1

  9
$STYLESHEET
  1

  9
$XEDIT
290
     1
  9
$CEPSNTYPE
380
     0
  9
$PSTYLEMODE
290
     1
  9
$FINGERPRINTGUID
  2
{6654AEC1-AE1C-FD48-B73C-1F906B78CFF5}
  9
$VERSIONGUID
  2
{404A8460-CAD3-C14B-8E21-16E4E859E009}
  9
$EXTNAMES
290
     1
  9
$PSVPSCALE
 40
0.0
  9
$OLESTARTUP
290
     0
  9
$SORTENTS
280
   127
  9
$INDEXCTL
280
     0
  9
$HIDETEXT
280
     1
  9
$XCLIPFRAME
280
     2
  9
$HALOGAP
280
     0
  9
$OBSCOLOR
 70
   257
  9
$OBSLTYPE
280
     0
  9
$INTERSECTIONDISPLAY
280
     0
  9
$INTERSECTIONCOLOR
 70
   257
  9
$DIMASSOC
280
     2
  9
$PROJECTNAME
  1

  9
$CAMERADISPLAY
290
     0
  9
$LENSLENGTH
 40
50.0
  9
$CAMERAHEIGHT
 40
0.0
  9
$STEPSPERSEC
 40
2.0
  9
$STEPSIZE
 40
6.0
  9
$3DDWFPREC
 40
2.0
  9
$PSOLWIDTH
 40
0.25
  9
$PSOLHEIGHT
 40
4.0
  9
$LOFTANG1
 40
1.570796326794896
  9
$LOFTANG2
 40
1.570796326794896
  9
$LOFTMAG1
 40
0.0
  9
$LOFTMAG2
 40
0.0
  9
$LOFTPARAM
 70
     7
  9
$LOFTNORMALS
280
     1
  9
$LATITUDE
 40
37.795
  9
$LONGITUDE
 40
-122.394
  9
$NORTHDIRECTION
 40
0.0
  9
$TIMEZONE
 70
 -8000
  9
$LIGHTGLYPHDISPLAY
280
     1
  9
$TILEMODELIGHTSYNCH
280
     1
  9
$CMATERIAL
347
11
  9
$SOLIDHIST
280
     0
  9
$SHOWHIST
280
     1
  9
$DWFFRAME
280
     2
  9
$DGNFRAME
280
     0
  9
$REALWORLDSCALE
290
     1
  9
$INTERFERECOLOR
 62
     1
  9
$INTERFEREOBJVS
345
33
  9
$INTERFEREVPVS
346
30
  9
$CSHADOW
280
     0
  9
$SHADOWPLANELOCATION
 40
0.0
  0
ENDSEC
  0
SECTION
  2
CLASSES
  0
CLASS
  1
ACDBDICTIONARYWDFLT
  2
AcDbDictionaryWithDefault
  3
ObjectDBX Classes
 90
        0
 91
        1
280
     0
281
     0
  0
CLASS
  1
MATERIAL
  2
AcDbMaterial
  3
ObjectDBX Classes
 90
     1153
 91
        3
280
     0
281
     0
  0
CLASS
  1
VISUALSTYLE
  2
AcDbVisualStyle
  3
ObjectDBX Classes
 90
     4095
 91
       24
280
     0
281
     0
  0
CLASS
  1
SCALE
  2
AcDbScale
  3
ObjectDBX Classes
 90
     1153
 91
       17
280
     0
281
     0
  0
CLASS
  1
TABLESTYLE
  2
AcDbTableStyle
  3
ObjectDBX Classes
 90
     4095
 91
        1
280
     0
281
     0
  0
CLASS
  1
MLEADERSTYLE
  2
AcDbMLeaderStyle
  3
ACDB_MLEADERSTYLE_CLASS
 90
     4095
 91
        1
280
     0
281
     0
  0
CLASS
  1
ACDBSECTIONVIEWSTYLE
  2
AcDbSectionViewStyle
  3
ObjectDBX Classes
 90
     1025
 91
        1
280
     0
281
     0
  0
CLASS
  1
ACDBDETAILVIEWSTYLE
  2
AcDbDetailViewStyle
  3
ObjectDBX Classes
 90
     1025
 91
        1
280
     0
281
     0
  0
CLASS
  1
DICTIONARYVAR
  2
AcDbDictionaryVar
  3
ObjectDBX Classes
 90
        0
 91
        5
280
     0
281
     0
  0
CLASS
  1
CELLSTYLEMAP
  2
AcDbCellStyleMap
  3
ObjectDBX Classes
 90
     1152
 91
        1
280
     0
281
     0
  0
ENDSEC
  0
SECTION
  2
TABLES
  0
TABLE
  2
VPORT
  5
8
330
0
100
AcDbSymbolTable
 70
     1
  0
VPORT
  5
57
330
8
100
AcDbSymbolTableRecord
100
AcDbViewportTableRecord
  2
*Active
 70
     0
 10
0.0
 20
0.0
 11
1.0
 21
1.0
 12
0.0
 22
0.0
 13
0.0
 23
0.0
 14
1.0
 24
1.0
 15
0.0
 25
0.0
 16
0.0
 26
0.0
 36
1.0
 17
4.243055555555548
 27
5.587063983660375
 37
0.0
 40
34.52358413479116
 41
1.119308447790599
 42
50.0
 43
0.0
 44
0.0
 50
0.0
 51
0.0
 71
     0
 72
   100
 73
     1
 74
     1
 75
     0
 76
     0
 77
     0
 78
     0
281
     0
 65
     1
110
0.0
120
0.0
130
0.0
111
1.0
121
0.0
131
0.0
112
0.0
122
1.0
132
0.0
 79
     0
146
0.0
 60
     3
 61
     5
292
     1
282
     1
141
0.0
142
0.0
 63
   250
421
  3355443
  0
ENDTAB
  0
TABLE
  2
LTYPE
  5
5
330
0
100
AcDbSymbolTable
 70
     1
  0
LTYPE
  5
5B
330
5
100
AcDbSymbolTableRecord
100
AcDbLinetypeTableRecord
  2
ByBlock
 70
     0
  3

 72
    65
 73
     0
 40
0.0
  0
LTYPE
  5
5C
330
5
100
AcDbSymbolTableRecord
100
AcDbLinetypeTableRecord
  2
ByLayer
 70
     0
  3

 72
    65
 73
     0
 40
0.0
  0
LTYPE
  5
5D
330
5
100
AcDbSymbolTableRecord
100
AcDbLinetypeTableRecord
  2
Continuous
 70
     0
  3
Solid line
 72
    65
 73
     0
 40
0.0
  0
ENDTAB
  0
TABLE
  2
LAYER
  5
2
330
0
100
AcDbSymbolTable
 70
     2
  0
LAYER
  5
54
330
2
100
AcDbSymbolTableRecord
100
AcDbLayerTableRecord
  2
0
 70
     0
 62
     7
  6
Continuous
370
     0
390
F
347
21
  0
LAYER
  5
78
330
2
100
AcDbSymbolTableRecord
100
AcDbLayerTableRecord
  2
LAYER_1
 70
     0
 62
     7
  6
Continuous
370
     0
390
F
347
21
  0
ENDTAB
  0
TABLE
  2
STYLE
  5
3
330
0
100
AcDbSymbolTable
 70
     2
  0
STYLE
  5
55
330
3
100
AcDbSymbolTableRecord
100
AcDbTextStyleTableRecord
  2
Standard
 70
     0
 40
0.0
 41
1.0
 50
0.0
 71
     0
 42
0.2
  3
txt
  4

  0
STYLE
  5
5A
330
3
100
AcDbSymbolTableRecord
100
AcDbTextStyleTableRecord
  2
Annotative
 70
     0
 40
0.0
 41
1.0
 50
0.0
 71
     0
 42
0.2
  3
txt
  4

1001
AcadAnnotative
1000
AnnotativeData
1002
{
1070
     1
1070
     1
1002
}
  0
ENDTAB
  0
TABLE
  2
VIEW
  5
6
330
0
100
AcDbSymbolTable
 70
     0
  0
ENDTAB
  0
TABLE
  2
UCS
  5
7
330
0
100
AcDbSymbolTable
 70
     0
  0
ENDTAB
  0
TABLE
  2
APPID
  5
9
330
0
100
AcDbSymbolTable
 70
     2
  0
APPID
  5
56
330
9
100
AcDbSymbolTableRecord
100
AcDbRegAppTableRecord
  2
ACAD
 70
     0
  0
APPID
  5
5E
330
9
100
AcDbSymbolTableRecord
100
AcDbRegAppTableRecord
  2
AcadAnnotative
 70
     0
  0
ENDTAB
  0
TABLE
  2
DIMSTYLE
  5
A
330
0
100
AcDbSymbolTable
 70
     2
100
AcDbDimStyleTable
 71
     0
  0
DIMSTYLE
105
58
330
A
100
AcDbSymbolTableRecord
100
AcDbDimStyleTableRecord
  2
Standard
 70
     0
340
55
  0
DIMSTYLE
105
59
330
A
100
AcDbSymbolTableRecord
100
AcDbDimStyleTableRecord
  2
Annotative
 70
     0
340
55
1001
AcadAnnotative
1000
AnnotativeData
1002
{
1070
     1
1070
     1
1002
}
  0
ENDTAB
  0
TABLE
  2
BLOCK_RECORD
  5
1
330
0
100
AcDbSymbolTable
 70
    13
  0
BLOCK_RECORD
  5
70
330
1
100
AcDbSymbolTableRecord
100
AcDbBlockTableRecord
  2
*Model_Space
340
73
 70
     0
280
     1
281
     0
  0
BLOCK_RECORD
  5
6C
330
1
100
AcDbSymbolTableRecord
100
AcDbBlockTableRecord
  2
*Paper_Space
340
6F
 70
     0
280
     1
281
     0
  0
BLOCK_RECORD
  5
74
330
1
100
AcDbSymbolTableRecord
100
AcDbBlockTableRecord
  2
*Paper_Space0
340
77
 70
     0
280
     1
281
     0
  0
BLOCK_RECORD
  5
8C
330
1
100
AcDbSymbolTableRecord
100
AcDbBlockTableRecord
  2
Block_0
340
0
102
{BLKREFS
331
8D
102
}
 70
     0
280
     1
281
     0
  0
BLOCK_RECORD
  5
90
330
1
100
AcDbSymbolTableRecord
100
AcDbBlockTableRecord
  2
Block_1
340
0
102
{BLKREFS
331
91
102
}
 70
     0
280
     1
281
     0
  0
BLOCK_RECORD
  5
A2
330
1
100
AcDbSymbolTableRecord
100
AcDbBlockTableRecord
  2
Block_2
340
0
102
{BLKREFS
331
A3
102
}
 70
     0
280
     1
281
     0
  0
BLOCK_RECORD
  5
A6
330
1
100
AcDbSymbolTableRecord
100
AcDbBlockTableRecord
  2
Block_3
340
0
102
{BLKREFS
331
A7
102
}
 70
     0
280
     1
281
     0
  0
BLOCK_RECORD
  5
B7
330
1
100
AcDbSymbolTableRecord
100
AcDbBlockTableRecord
  2
Block_4
340
0
102
{BLKREFS
331
B8
102
}
 70
     0
280
     1
281
     0
  0
BLOCK_RECORD
  5
BB
330
1
100
AcDbSymbolTableRecord
100
AcDbBlockTableRecord
  2
Block_5
340
0
102
{BLKREFS
331
BC
102
}
 70
     0
280
     1
281
     0
  0
BLOCK_RECORD
  5
C6
330
1
100
AcDbSymbolTableRecord
100
AcDbBlockTableRecord
  2
Block_6
340
0
102
{BLKREFS
331
C7
102
}
 70
     0
280
     1
281
     0
  0
BLOCK_RECORD
  5
CA
330
1
100
AcDbSymbolTableRecord
100
AcDbBlockTableRecord
  2
Block_7
340
0
102
{BLKREFS
331
CB
102
}
 70
     0
280
     1
281
     0
  0
BLOCK_RECORD
  5
D6
330
1
100
AcDbSymbolTableRecord
100
AcDbBlockTableRecord
  2
Block_8
340
0
102
{BLKREFS
331
D7
102
}
 70
     0
280
     1
281
     0
  0
BLOCK_RECORD
  5
DA
330
1
100
AcDbSymbolTableRecord
100
AcDbBlockTableRecord
  2
Block_9
340
0
102
{BLKREFS
331
DB
102
}
 70
     0
280
     1
281
     0
  0
BLOCK_RECORD
  5
F6
330
1
100
AcDbSymbolTableRecord
100
AcDbBlockTableRecord
  2
Block_10
340
0
102
{BLKREFS
331
F7
102
}
 70
     0
280
     1
281
     0
  0
BLOCK_RECORD
  5
FA
330
1
100
AcDbSymbolTableRecord
100
AcDbBlockTableRecord
  2
Block_11
340
0
102
{BLKREFS
331
FB
102
}
 70
     0
280
     1
281
     0
  0
ENDTAB
  0
ENDSEC
  0
SECTION
  2
BLOCKS
  0
BLOCK
  5
71
330
70
100
AcDbEntity
  8
0
100
AcDbBlockBegin
  2
*Model_Space
 70
     0
 10
0.0
 20
0.0
 30
0.0
  3
*Model_Space
  1

  0
ENDBLK
  5
72
330
70
100
AcDbEntity
  8
0
100
AcDbBlockEnd
  0
BLOCK
  5
6D
330
6C
100
AcDbEntity
 67
     1
  8
0
100
AcDbBlockBegin
  2
*Paper_Space
 70
     0
 10
0.0
 20
0.0
 30
0.0
  3
*Paper_Space
  1

  0
ENDBLK
  5
6E
330
6C
100
AcDbEntity
 67
     1
  8
0
100
AcDbBlockEnd
  0
BLOCK
  5
75
330
74
100
AcDbEntity
 67
     1
  8
0
100
AcDbBlockBegin
  2
*Paper_Space0
 70
     0
 10
0.0
 20
0.0
 30
0.0
  3
*Paper_Space0
  1

  0
ENDBLK
  5
76
330
74
100
AcDbEntity
 67
     1
  8
0
100
AcDbBlockEnd
  0
BLOCK
  5
8E
330
8C
100
AcDbEntity
  8
0
100
AcDbBlockBegin
  2
Block_0
 70
     0
 10
0.0
 20
0.0
 30
0.0
  3
Block_0
  1

  0
INSERT
  5
91
330
8C
100
AcDbEntity
  8
0
100
AcDbBlockReference
  2
Block_1
 10
0.0
 20
0.0
 30
0.0
  0
ENDBLK
  5
8F
330
8C
100
AcDbEntity
  8
0
100
AcDbBlockEnd
  0
BLOCK
  5
92
330
90
100
AcDbEntity
  8
0
100
AcDbBlockBegin
  2
Block_1
 70
     0
 10
0.0
 20
0.0
 30
0.0
  3
Block_1
  1

  0
SPLINE
  5
94
330
90
100
AcDbEntity
  8
0
100
AcDbSpline
210
0.0
220
0.0
230
1.0
 70
    11
 71
     3
 72
    47
 73
    43
 74
     0
 42
0.0000000001
 43
0.0000000001
 40
0.0
 40
0.0
 40
0.0
 40
0.0
 40
1.0
 40
1.0
 40
1.0
 40
2.0
 40
2.0
 40
2.0
 40
3.0
 40
3.0
 40
3.0
 40
4.0
 40
4.0
 40
4.0
 40
5.0
 40
5.0
 40
5.0
 40
6.0
 40
6.0
 40
6.0
 40
7.0
 40
7.0
 40
7.0
 40
8.0
 40
8.0
 40
8.0
 40
9.0
 40
9.0
 40
9.0
 40
10.0
 40
10.0
 40
10.0
 40
11.0
 40
11.0
 40
11.0
 40
12.0
 40
12.0
 40
12.0
 40
13.0
 40
13.0
 40
13.0
 40
14.0
 40
14.0
 40
14.0
 40
14.0
 10
7.517062717013888
 20
14.32817925347222
 30
0.0
 10
7.517062717013888
 20
14.32817925347222
 30
0.0
 10
7.517062717013888
 20
14.40445963541666
 30
0.0
 10
7.517062717013888
 20
14.40445963541666
 30
0.0
 10
7.517062717013888
 20
14.40445963541666
 30
0.0
 10
7.614515516493055
 20
14.49909125434027
 30
0.0
 10
7.614515516493055
 20
14.49909125434027
 30
0.0
 10
7.8489990234375
 20
14.72226291232639
 30
0.0
 10
7.954928927951388
 20
14.84091525607639
 30
0.0
 10
7.956339518229166
 20
14.97934299045138
 30
0.0
 10
7.956339518229166
 20
15.07256401909722
 30
0.0
 10
7.911146375868055
 20
15.15873209635416
 30
0.0
 10
7.774129231770833
 20
15.15873209635416
 30
0.0
 10
7.6907958984375
 20
15.15873209635416
 30
0.0
 10
7.62158203125
 20
15.11634657118055
 30
0.0
 10
7.579210069444443
 20
15.08104112413194
 30
0.0
 10
7.579210069444443
 20
15.08104112413194
 30
0.0
 10
7.539659288194443
 20
15.16861979166666
 30
0.0
 10
7.539659288194443
 20
15.16861979166666
 30
0.0
 10
7.603217230902777
 20
15.2222900390625
 30
0.0
 10
7.693617078993055
 20
15.2618408203125
 30
0.0
 10
7.799560546875
 20
15.2618408203125
 30
0.0
 10
7.997300889756943
 20
15.2618408203125
 30
0.0
 10
8.080647786458332
 20
15.12623426649305
 30
0.0
 10
8.080647786458332
 20
14.994873046875
 30
0.0
 10
8.080647786458332
 20
14.82538519965278
 30
0.0
 10
7.957750108506943
 20
14.68836805555555
 30
0.0
 10
7.764241536458333
 20
14.50191243489583
 30
0.0
 10
7.764241536458333
 20
14.50191243489583
 30
0.0
 10
7.6907958984375
 20
14.43412272135416
 30
0.0
 10
7.6907958984375
 20
14.43412272135416
 30
0.0
 10
7.6907958984375
 20
14.43412272135416
 30
0.0
 10
7.6907958984375
 20
14.43128797743055
 30
0.0
 10
7.6907958984375
 20
14.43128797743055
 30
0.0
 10
7.6907958984375
 20
14.43128797743055
 30
0.0
 10
8.103244357638889
 20
14.43128797743055
 30
0.0
 10
8.103244357638889
 20
14.43128797743055
 30
0.0
 10
8.103244357638889
 20
14.43128797743055
 30
0.0
 10
8.103244357638889
 20
14.32817925347222
 30
0.0
 10
8.103244357638889
 20
14.32817925347222
 30
0.0
 10
8.103244357638889
 20
14.32817925347222
 30
0.0
 10
7.517062717013888
 20
14.32817925347222
 30
0.0
 10
7.517062717013888
 20
14.32817925347222
 30
0.0
  0
HATCH
  5
95
330
90
100
AcDbEntity
  8
0
 62
    18
420
        0
440
 33554687
100
AcDbHatch
 10
0.0
 20
0.0
 30
0.0
210
0.0
220
0.0
230
1.0
  2
SOLID
 70
     1
 71
     1
 91
        1
 92
        1
 93
        1
 72
     4
 94
        3
 73
     0
 74
     0
 95
       47
 96
       43
 40
0.0
 40
0.0
 40
0.0
 40
0.0
 40
1.0
 40
1.0
 40
1.0
 40
2.0
 40
2.0
 40
2.0
 40
3.0
 40
3.0
 40
3.0
 40
4.0
 40
4.0
 40
4.0
 40
5.0
 40
5.0
 40
5.0
 40
6.0
 40
6.0
 40
6.0
 40
7.0
 40
7.0
 40
7.0
 40
8.0
 40
8.0
 40
8.0
 40
9.0
 40
9.0
 40
9.0
 40
10.0
 40
10.0
 40
10.0
 40
11.0
 40
11.0
 40
11.0
 40
12.0
 40
12.0
 40
12.0
 40
13.0
 40
13.0
 40
13.0
 40
14.0
 40
14.0
 40
14.0
 40
14.0
 10
7.517062717013888
 20
14.32817925347222
 10
7.517062717013888
 20
14.32817925347222
 10
7.517062717013888
 20
14.40445963541666
 10
7.517062717013888
 20
14.40445963541666
 10
7.517062717013888
 20
14.40445963541666
 10
7.614515516493055
 20
14.49909125434027
 10
7.614515516493055
 20
14.49909125434027
 10
7.8489990234375
 20
14.72226291232639
 10
7.954928927951388
 20
14.84091525607639
 10
7.956339518229166
 20
14.97934299045138
 10
7.956339518229166
 20
15.07256401909722
 10
7.911146375868055
 20
15.15873209635416
 10
7.774129231770833
 20
15.15873209635416
 10
7.6907958984375
 20
15.15873209635416
 10
7.62158203125
 20
15.11634657118055
 10
7.579210069444443
 20
15.08104112413194
 10
7.579210069444443
 20
15.08104112413194
 10
7.539659288194443
 20
15.16861979166666
 10
7.539659288194443
 20
15.16861979166666
 10
7.603217230902777
 20
15.2222900390625
 10
7.693617078993055
 20
15.2618408203125
 10
7.799560546875
 20
15.2618408203125
 10
7.997300889756943
 20
15.2618408203125
 10
8.080647786458332
 20
15.12623426649305
 10
8.080647786458332
 20
14.994873046875
 10
8.080647786458332
 20
14.82538519965278
 10
7.957750108506943
 20
14.68836805555555
 10
7.764241536458333
 20
14.50191243489583
 10
7.764241536458333
 20
14.50191243489583
 10
7.6907958984375
 20
14.43412272135416
 10
7.6907958984375
 20
14.43412272135416
 10
7.6907958984375
 20
14.43412272135416
 10
7.6907958984375
 20
14.43128797743055
 10
7.6907958984375
 20
14.43128797743055
 10
7.6907958984375
 20
14.43128797743055
 10
8.103244357638889
 20
14.43128797743055
 10
8.103244357638889
 20
14.43128797743055
 10
8.103244357638889
 20
14.43128797743055
 10
8.103244357638889
 20
14.32817925347222
 10
8.103244357638889
 20
14.32817925347222
 10
8.103244357638889
 20
14.32817925347222
 10
7.517062717013888
 20
14.32817925347222
 10
7.517062717013888
 20
14.32817925347222
 97
        0
 97
        1
330
94
 75
     2
 76
     1
 98
        1
 10
0.0
 20
0.0
450
        0
451
        0
460
0.0
461
0.0
452
        0
462
0.0
453
        0
470

  0
SPLINE
  5
96
330
90
100
AcDbEntity
  8
0
100
AcDbSpline
210
0.0
220
0.0
230
1.0
 70
     9
 71
     3
 72
    20
 73
    16
 74
     0
 42
0.0000000001
 43
0.0000000001
 40
0.0
 40
0.0
 40
0.0
 40
0.0
 40
1.0
 40
1.0
 40
1.0
 40
2.0
 40
2.0
 40
2.0
 40
3.0
 40
3.0
 40
3.0
 40
4.0
 40
4.0
 40
4.0
 40
5.0
 40
5.0
 40
5.0
 40
5.0
 10
8.358846028645832
 20
14.94402398003472
 30
0.0
 10
8.358846028645832
 20
14.82961697048611
 30
0.0
 10
8.428059895833332
 20
14.74910481770833
 30
0.0
 10
8.535413953993055
 20
14.74910481770833
 30
0.0
 10
8.618747287326389
 20
14.74910481770833
 30
0.0
 10
8.683729383680555
 20
14.79006618923611
 30
0.0
 10
8.71621365017361
 20
14.84514702690972
 30
0.0
 10
8.723280164930555
 20
14.85645887586805
 30
0.0
 10
8.727511935763889
 20
14.87057834201389
 30
0.0
 10
8.727511935763889
 20
14.89035373263889
 30
0.0
 10
8.727511935763889
 20
15.04714626736111
 30
0.0
 10
8.669596354166666
 20
15.16720920138889
 30
0.0
 10
8.539645724826389
 20
15.16720920138889
 30
0.0
 10
8.4337158203125
 20
15.16720920138889
 30
0.0
 10
8.358846028645832
 20
15.073974609375
 30
0.0
 10
8.358846028645832
 20
14.94402398003472
 30
0.0
  0
SPLINE
  5
97
330
90
100
AcDbEntity
  8
0
100
AcDbSpline
210
0.0
220
0.0
230
1.0
 70
     9
 71
     3
 72
    41
 73
    37
 74
     0
 42
0.0000000001
 43
0.0000000001
 40
0.0
 40
0.0
 40
0.0
 40
0.0
 40
1.0
 40
1.0
 40
1.0
 40
2.0
 40
2.0
 40
2.0
 40
3.0
 40
3.0
 40
3.0
 40
4.0
 40
4.0
 40
4.0
 40
5.0
 40
5.0
 40
5.0
 40
6.0
 40
6.0
 40
6.0
 40
7.0
 40
7.0
 40
7.0
 40
8.0
 40
8.0
 40
8.0
 40
9.0
 40
9.0
 40
9.0
 40
10.0
 40
10.0
 40
10.0
 40
11.0
 40
11.0
 40
11.0
 40
12.0
 40
12.0
 40
12.0
 40
12.0
 10
8.313652886284721
 20
14.41575792100694
 30
0.0
 10
8.34048122829861
 20
14.41292317708333
 30
0.0
 10
8.371568467881944
 20
14.41575792100694
 30
0.0
 10
8.4139404296875
 20
14.41998969184028
 30
0.0
 10
8.485975477430555
 20
14.42987738715278
 30
0.0
 10
8.553778754340276
 20
14.45954047309028
 30
0.0
 10
8.606038411458332
 20
14.50897894965278
 30
0.0
 10
8.66677517361111
 20
14.56405978732639
 30
0.0
 10
8.710557725694444
 20
14.64458550347222
 30
0.0
 10
8.727511935763889
 20
14.75333658854166
 30
0.0
 10
8.727511935763889
 20
14.75333658854166
 30
0.0
 10
8.723280164930555
 20
14.75333658854166
 30
0.0
 10
8.723280164930555
 20
14.75333658854166
 30
0.0
 10
8.672417534722221
 20
14.69118923611111
 30
0.0
 10
8.598971896701389
 20
14.65445963541666
 30
0.0
 10
8.507161458333332
 20
14.65445963541666
 30
0.0
 10
8.341905381944444
 20
14.65445963541666
 30
0.0
 10
8.2359619140625
 20
14.77876790364583
 30
0.0
 10
8.2359619140625
 20
14.935546875
 30
0.0
 10
8.2359619140625
 20
15.10929361979166
 30
0.0
 10
8.361680772569444
 20
15.2618408203125
 30
0.0
 10
8.549533420138889
 20
15.2618408203125
 30
0.0
 10
8.737399631076389
 20
15.2618408203125
 30
0.0
 10
8.853217230902776
 20
15.10929361979166
 30
0.0
 10
8.853217230902776
 20
14.87481011284722
 30
0.0
 10
8.853217230902776
 20
14.67282443576389
 30
0.0
 10
8.78542751736111
 20
14.53157552083333
 30
0.0
 10
8.695027669270832
 20
14.44401041666666
 30
0.0
 10
8.624403211805555
 20
14.37479654947916
 30
0.0
 10
8.526936848958332
 20
14.33241102430555
 30
0.0
 10
8.428059895833332
 20
14.32111273871528
 30
0.0
 10
8.382866753472221
 20
14.31405978732638
 30
0.0
 10
8.343315972222221
 20
14.31263563368055
 30
0.0
 10
8.313652886284721
 20
14.31405978732638
 30
0.0
 10
8.313652886284721
 20
14.31405978732638
 30
0.0
 10
8.313652886284721
 20
14.41575792100694
 30
0.0
 10
8.313652886284721
 20
14.41575792100694
 30
0.0
  0
HATCH
  5
98
330
90
100
AcDbEntity
  8
0
 62
    18
420
        0
440
 33554687
100
AcDbHatch
 10
0.0
 20
0.0
 30
0.0
210
0.0
220
0.0
230
1.0
  2
SOLID
 70
     1
 71
     1
 91
        2
 92
        1
 93
        1
 72
     4
 94
        3
 73
     0
 74
     0
 95
       20
 96
       16
 40
0.0
 40
0.0
 40
0.0
 40
0.0
 40
1.0
 40
1.0
 40
1.0
 40
2.0
 40
2.0
 40
2.0
 40
3.0
 40
3.0
 40
3.0
 40
4.0
 40
4.0
 40
4.0
 40
5.0
 40
5.0
 40
5.0
 40
5.0
 10
8.358846028645832
 20
14.94402398003472
 10
8.358846028645832
 20
14.82961697048611
 10
8.428059895833332
 20
14.74910481770833
 10
8.535413953993055
 20
14.74910481770833
 10
8.618747287326389
 20
14.74910481770833
 10
8.683729383680555
 20
14.79006618923611
 10
8.71621365017361
 20
14.84514702690972
 10
8.723280164930555
 20
14.85645887586805
 10
8.727511935763889
 20
14.87057834201389
 10
8.727511935763889
 20
14.89035373263889
 10
8.727511935763889
 20
15.04714626736111
 10
8.669596354166666
 20
15.16720920138889
 10
8.539645724826389
 20
15.16720920138889
 10
8.4337158203125
 20
15.16720920138889
 10
8.358846028645832
 20
15.073974609375
 10
8.358846028645832
 20
14.94402398003472
 97
        0
 97
        1
330
96
 92
        1
 93
        1
 72
     4
 94
        3
 73
     0
 74
     0
 95
       41
 96
       37
 40
0.0
 40
0.0
 40
0.0
 40
0.0
 40
1.0
 40
1.0
 40
1.0
 40
2.0
 40
2.0
 40
2.0
 40
3.0
 40
3.0
 40
3.0
 40
4.0
 40
4.0
 40
4.0
 40
5.0
 40
5.0
 40
5.0
 40
6.0
 40
6.0
 40
6.0
 40
7.0
 40
7.0
 40
7.0
 40
8.0
 40
8.0
 40
8.0
 40
9.0
 40
9.0
 40
9.0
 40
10.0
 40
10.0
 40
10.0
 40
11.0
 40
11.0
 40
11.0
 40
12.0
 40
12.0
 40
12.0
 40
12.0
 10
8.313652886284721
 20
14.41575792100694
 10
8.34048122829861
 20
14.41292317708333
 10
8.371568467881944
 20
14.41575792100694
 10
8.4139404296875
 20
14.41998969184028
 10
8.485975477430555
 20
14.42987738715278
 10
8.553778754340276
 20
14.45954047309028
 10
8.606038411458332
 20
14.50897894965278
 10
8.66677517361111
 20
14.56405978732639
 10
8.710557725694444
 20
14.64458550347222
 10
8.727511935763889
 20
14.75333658854166
 10
8.727511935763889
 20
14.75333658854166
 10
8.723280164930555
 20
14.75333658854166
 10
8.723280164930555
 20
14.75333658854166
 10
8.672417534722221
 20
14.69118923611111
 10
8.598971896701389
 20
14.65445963541666
 10
8.507161458333332
 20
14.65445963541666
 10
8.341905381944444
 20
14.65445963541666
 10
8.2359619140625
 20
14.77876790364583
 10
8.2359619140625
 20
14.935546875
 10
8.2359619140625
 20
15.10929361979166
 10
8.361680772569444
 20
15.2618408203125
 10
8.549533420138889
 20
15.2618408203125
 10
8.737399631076389
 20
15.2618408203125
 10
8.853217230902776
 20
15.10929361979166
 10
8.853217230902776
 20
14.87481011284722
 10
8.853217230902776
 20
14.67282443576389
 10
8.78542751736111
 20
14.53157552083333
 10
8.695027669270832
 20
14.44401041666666
 10
8.624403211805555
 20
14.37479654947916
 10
8.526936848958332
 20
14.33241102430555
 10
8.428059895833332
 20
14.32111273871528
 10
8.382866753472221
 20
14.31405978732638
 10
8.343315972222221
 20
14.31263563368055
 10
8.313652886284721
 20
14.31405978732638
 10
8.313652886284721
 20
14.31405978732638
 10
8.313652886284721
 20
14.41575792100694
 10
8.313652886284721
 20
14.41575792100694
 97
        0
 97
        1
330
97
 75
     2
 76
     1
 98
        1
 10
0.0
 20
0.0
450
        0
451
        0
460
0.0
461
0.0
452
        0
462
0.0
453
        0
470

  0
SPLINE
  5
99
330
90
100
AcDbEntity
  8
0
100
AcDbSpline
210
0.0
220
0.0
230
1.0
 70
     9
 71
     3
 72
    17
 73
    13
 74
     0
 42
0.0000000001
 43
0.0000000001
 40
0.0
 40
0.0
 40
0.0
 40
0.0
 40
1.0
 40
1.0
 40
1.0
 40
2.0
 40
2.0
 40
2.0
 40
3.0
 40
3.0
 40
3.0
 40
4.0
 40
4.0
 40
4.0
 40
4.0
 10
8.976060655381944
 20
14.40162489149305
 30
0.0
 10
8.976060655381944
 20
14.45389811197916
 30
0.0
 10
9.011366102430555
 20
14.49061414930555
 30
0.0
 10
9.060804578993055
 20
14.49061414930555
 30
0.0
 10
9.110243055555555
 20
14.49061414930555
 30
0.0
 10
9.144137912326387
 20
14.45389811197916
 30
0.0
 10
9.144137912326387
 20
14.40162489149305
 30
0.0
 10
9.144137912326387
 20
14.35077582465277
 30
0.0
 10
9.111653645833332
 20
14.31263563368055
 30
0.0
 10
9.059393988715276
 20
14.31263563368055
 30
0.0
 10
9.009955512152776
 20
14.31263563368055
 30
0.0
 10
8.976060655381944
 20
14.35077582465277
 30
0.0
 10
8.976060655381944
 20
14.40162489149305
 30
0.0
  0
HATCH
  5
9A
330
90
100
AcDbEntity
  8
0
 62
    18
420
        0
440
 33554687
100
AcDbHatch
 10
0.0
 20
0.0
 30
0.0
210
0.0
220
0.0
230
1.0
  2
SOLID
 70
     1
 71
     1
 91
        1
 92
        1
 93
        1
 72
     4
 94
        3
 73
     0
 74
     0
 95
       17
 96
       13
 40
0.0
 40
0.0
 40
0.0
 40
0.0
 40
1.0
 40
1.0
 40
1.0
 40
2.0
 40
2.0
 40
2.0
 40
3.0
 40
3.0
 40
3.0
 40
4.0
 40
4.0
 40
4.0
 40
4.0
 10
8.976060655381944
 20
14.40162489149305
 10
8.976060655381944
 20
14.45389811197916
 10
9.011366102430555
 20
14.49061414930555
 10
9.060804578993055
 20
14.49061414930555
 10
9.110243055555555
 20
14.49061414930555
 10
9.144137912326387
 20
14.45389811197916
 10
9.144137912326387
 20
14.40162489149305
 10
9.144137912326387
 20
14.35077582465277
 10
9.111653645833332
 20
14.31263563368055
 10
9.059393988715276
 20
14.31263563368055
 10
9.009955512152776
 20
14.31263563368055
 10
8.976060655381944
 20
14.35077582465277
 10
8.976060655381944
 20
14.40162489149305
 97
        0
 97
        1
330
99
 75
     2
 76
     1
 98
        1
 10
0.0
 20
0.0
450
        0
451
        0
460
0.0
461
0.0
452
        0
462
0.0
453
        0
470

  0
SPLINE
  5
9B
330
90
100
AcDbEntity
  8
0
100
AcDbSpline
210
0.0
220
0.0
230
1.0
 70
    11
 71
     3
 72
    29
 73
    25
 74
     0
 42
0.0000000001
 43
0.0000000001
 40
0.0
 40
0.0
 40
0.0
 40
0.0
 40
1.0
 40
1.0
 40
1.0
 40
2.0
 40
2.0
 40
2.0
 40
3.0
 40
3.0
 40
3.0
 40
4.0
 40
4.0
 40
4.0
 40
5.0
 40
5.0
 40
5.0
 40
6.0
 40
6.0
 40
6.0
 40
7.0
 40
7.0
 40
7.0
 40
8.0
 40
8.0
 40
8.0
 40
8.0
 10
9.854587131076387
 20
15.24629720052083
 30
0.0
 10
9.854587131076387
 20
15.24629720052083
 30
0.0
 10
9.854587131076387
 20
15.16437445746527
 30
0.0
 10
9.854587131076387
 20
15.16437445746527
 30
0.0
 10
9.854587131076387
 20
15.16437445746527
 30
0.0
 10
9.45486111111111
 20
14.32817925347222
 30
0.0
 10
9.45486111111111
 20
14.32817925347222
 30
0.0
 10
9.45486111111111
 20
14.32817925347222
 30
0.0
 10
9.32632107204861
 20
14.32817925347222
 30
0.0
 10
9.32632107204861
 20
14.32817925347222
 30
0.0
 10
9.32632107204861
 20
14.32817925347222
 30
0.0
 10
9.72463650173611
 20
15.14036729600694
 30
0.0
 10
9.72463650173611
 20
15.14036729600694
 30
0.0
 10
9.72463650173611
 20
15.14036729600694
 30
0.0
 10
9.72463650173611
 20
15.1431884765625
 30
0.0
 10
9.72463650173611
 20
15.1431884765625
 30
0.0
 10
9.72463650173611
 20
15.1431884765625
 30
0.0
 10
9.275472005208332
 20
15.1431884765625
 30
0.0
 10
9.275472005208332
 20
15.1431884765625
 30
0.0
 10
9.275472005208332
 20
15.1431884765625
 30
0.0
 10
9.275472005208332
 20
15.24629720052083
 30
0.0
 10
9.275472005208332
 20
15.24629720052083
 30
0.0
 10
9.275472005208332
 20
15.24629720052083
 30
0.0
 10
9.854587131076387
 20
15.24629720052083
 30
0.0
 10
9.854587131076387
 20
15.24629720052083
 30
0.0
  0
HATCH
  5
9C
330
90
100
AcDbEntity
  8
0
 62
    18
420
        0
440
 33554687
100
AcDbHatch
 10
0.0
 20
0.0
 30
0.0
210
0.0
220
0.0
230
1.0
  2
SOLID
 70
     1
 71
     1
 91
        1
 92
        1
 93
        1
 72
     4
 94
        3
 73
     0
 74
     0
 95
       29
 96
       25
 40
0.0
 40
0.0
 40
0.0
 40
0.0
 40
1.0
 40
1.0
 40
1.0
 40
2.0
 40
2.0
 40
2.0
 40
3.0
 40
3.0
 40
3.0
 40
4.0
 40
4.0
 40
4.0
 40
5.0
 40
5.0
 40
5.0
 40
6.0
 40
6.0
 40
6.0
 40
7.0
 40
7.0
 40
7.0
 40
8.0
 40
8.0
 40
8.0
 40
8.0
 10
9.854587131076387
 20
15.24629720052083
 10
9.854587131076387
 20
15.24629720052083
 10
9.854587131076387
 20
15.16437445746527
 10
9.854587131076387
 20
15.16437445746527
 10
9.854587131076387
 20
15.16437445746527
 10
9.45486111111111
 20
14.32817925347222
 10
9.45486111111111
 20
14.32817925347222
 10
9.45486111111111
 20
14.32817925347222
 10
9.32632107204861
 20
14.32817925347222
 10
9.32632107204861
 20
14.32817925347222
 10
9.32632107204861
 20
14.32817925347222
 10
9.72463650173611
 20
15.14036729600694
 10
9.72463650173611
 20
15.14036729600694
 10
9.72463650173611
 20
15.14036729600694
 10
9.72463650173611
 20
15.1431884765625
 10
9.72463650173611
 20
15.1431884765625
 10
9.72463650173611
 20
15.1431884765625
 10
9.275472005208332
 20
15.1431884765625
 10
9.275472005208332
 20
15.1431884765625
 10
9.275472005208332
 20
15.1431884765625
 10
9.275472005208332
 20
15.24629720052083
 10
9.275472005208332
 20
15.24629720052083
 10
9.275472005208332
 20
15.24629720052083
 10
9.854587131076387
 20
15.24629720052083
 10
9.854587131076387
 20
15.24629720052083
 97
        0
 97
        1
330
9B
 75
     2
 76
     1
 98
        1
 10
0.0
 20
0.0
450
        0
451
        0
460
0.0
461
0.0
452
        0
462
0.0
453
        0
470

  0
SPLINE
  5
9D
330
90
100
AcDbEntity
  8
0
100
AcDbSpline
210
0.0
220
0.0
230
1.0
 70
    11
 71
     3
 72
    50
 73
    46
 74
     0
 42
0.0000000001
 43
0.0000000001
 40
0.0
 40
0.0
 40
0.0
 40
0.0
 40
1.0
 40
1.0
 40
1.0
 40
2.0
 40
2.0
 40
2.0
 40
3.0
 40
3.0
 40
3.0
 40
4.0
 40
4.0
 40
4.0
 40
5.0
 40
5.0
 40
5.0
 40
6.0
 40
6.0
 40
6.0
 40
7.0
 40
7.0
 40
7.0
 40
8.0
 40
8.0
 40
8.0
 40
9.0
 40
9.0
 40
9.0
 40
10.0
 40
10.0
 40
10.0
 40
11.0
 40
11.0
 40
11.0
 40
12.0
 40
12.0
 40
12.0
 40
13.0
 40
13.0
 40
13.0
 40
14.0
 40
14.0
 40
14.0
 40
15.0
 40
15.0
 40
15.0
 40
15.0
 10
10.5311279296875
 20
15.14177788628472
 30
0.0
 10
10.5311279296875
 20
15.14177788628472
 30
0.0
 10
10.18082682291666
 20
15.14177788628472
 30
0.0
 10
10.18082682291666
 20
15.14177788628472
 30
0.0
 10
10.18082682291666
 20
15.14177788628472
 30
0.0
 10
10.1455078125
 20
14.90589735243055
 30
0.0
 10
10.1455078125
 20
14.90589735243055
 30
0.0
 10
10.16669379340277
 20
14.90871853298611
 30
0.0
 10
10.18646918402777
 20
14.91153971354166
 30
0.0
 10
10.22037760416666
 20
14.91153971354166
 30
0.0
 10
10.29100206163194
 20
14.91153971354166
 30
0.0
 10
10.36162651909722
 20
14.89600965711805
 30
0.0
 10
10.41811794704861
 20
14.86210123697916
 30
0.0
 10
10.49016655815972
 20
14.82113986545139
 30
0.0
 10
10.54947916666666
 20
14.74203830295139
 30
0.0
 10
10.54947916666666
 20
14.626220703125
 30
0.0
 10
10.54947916666666
 20
14.44683159722222
 30
0.0
 10
10.40681966145833
 20
14.31263563368055
 30
0.0
 10
10.20765516493055
 20
14.31263563368055
 30
0.0
 10
10.10736762152777
 20
14.31263563368055
 30
0.0
 10
10.02262369791666
 20
14.34088812934027
 30
0.0
 10
9.978841145833332
 20
14.369140625
 30
0.0
 10
9.978841145833332
 20
14.369140625
 30
0.0
 10
10.00991482204861
 20
14.46378580729166
 30
0.0
 10
10.00991482204861
 20
14.46378580729166
 30
0.0
 10
10.04805501302083
 20
14.44117567274305
 30
0.0
 10
10.12291124131944
 20
14.41292317708333
 30
0.0
 10
10.20624457465277
 20
14.41292317708333
 30
0.0
 10
10.323486328125
 20
14.41292317708333
 30
0.0
 10
10.42377387152777
 20
14.48920355902777
 30
0.0
 10
10.42377387152777
 20
14.61208767361111
 30
0.0
 10
10.42236328125
 20
14.73074001736111
 30
0.0
 10
10.34326171875
 20
14.81549750434028
 30
0.0
 10
10.15964084201389
 20
14.81549750434028
 30
0.0
 10
10.10736762152777
 20
14.81549750434028
 30
0.0
 10
10.06640625
 20
14.80984157986111
 30
0.0
 10
10.03251139322916
 20
14.80560980902778
 30
0.0
 10
10.03251139322916
 20
14.80560980902778
 30
0.0
 10
10.09183756510416
 20
15.24629720052083
 30
0.0
 10
10.09183756510416
 20
15.24629720052083
 30
0.0
 10
10.09183756510416
 20
15.24629720052083
 30
0.0
 10
10.5311279296875
 20
15.24629720052083
 30
0.0
 10
10.5311279296875
 20
15.24629720052083
 30
0.0
 10
10.5311279296875
 20
15.24629720052083
 30
0.0
 10
10.5311279296875
 20
15.14177788628472
 30
0.0
 10
10.5311279296875
 20
15.14177788628472
 30
0.0
  0
HATCH
  5
9E
330
90
100
AcDbEntity
  8
0
 62
    18
420
        0
440
 33554687
100
AcDbHatch
 10
0.0
 20
0.0
 30
0.0
210
0.0
220
0.0
230
1.0
  2
SOLID
 70
     1
 71
     1
 91
        1
 92
        1
 93
        1
 72
     4
 94
        3
 73
     0
 74
     0
 95
       50
 96
       46
 40
0.0
 40
0.0
 40
0.0
 40
0.0
 40
1.0
 40
1.0
 40
1.0
 40
2.0
 40
2.0
 40
2.0
 40
3.0
 40
3.0
 40
3.0
 40
4.0
 40
4.0
 40
4.0
 40
5.0
 40
5.0
 40
5.0
 40
6.0
 40
6.0
 40
6.0
 40
7.0
 40
7.0
 40
7.0
 40
8.0
 40
8.0
 40
8.0
 40
9.0
 40
9.0
 40
9.0
 40
10.0
 40
10.0
 40
10.0
 40
11.0
 40
11.0
 40
11.0
 40
12.0
 40
12.0
 40
12.0
 40
13.0
 40
13.0
 40
13.0
 40
14.0
 40
14.0
 40
14.0
 40
15.0
 40
15.0
 40
15.0
 40
15.0
 10
10.5311279296875
 20
15.14177788628472
 10
10.5311279296875
 20
15.14177788628472
 10
10.18082682291666
 20
15.14177788628472
 10
10.18082682291666
 20
15.14177788628472
 10
10.18082682291666
 20
15.14177788628472
 10
10.1455078125
 20
14.90589735243055
 10
10.1455078125
 20
14.90589735243055
 10
10.16669379340277
 20
14.90871853298611
 10
10.18646918402777
 20
14.91153971354166
 10
10.22037760416666
 20
14.91153971354166
 10
10.29100206163194
 20
14.91153971354166
 10
10.36162651909722
 20
14.89600965711805
 10
10.41811794704861
 20
14.86210123697916
 10
10.49016655815972
 20
14.82113986545139
 10
10.54947916666666
 20
14.74203830295139
 10
10.54947916666666
 20
14.626220703125
 10
10.54947916666666
 20
14.44683159722222
 10
10.40681966145833
 20
14.31263563368055
 10
10.20765516493055
 20
14.31263563368055
 10
10.10736762152777
 20
14.31263563368055
 10
10.02262369791666
 20
14.34088812934027
 10
9.978841145833332
 20
14.369140625
 10
9.978841145833332
 20
14.369140625
 10
10.00991482204861
 20
14.46378580729166
 10
10.00991482204861
 20
14.46378580729166
 10
10.04805501302083
 20
14.44117567274305
 10
10.12291124131944
 20
14.41292317708333
 10
10.20624457465277
 20
14.41292317708333
 10
10.323486328125
 20
14.41292317708333
 10
10.42377387152777
 20
14.48920355902777
 10
10.42377387152777
 20
14.61208767361111
 10
10.42236328125
 20
14.73074001736111
 10
10.34326171875
 20
14.81549750434028
 10
10.15964084201389
 20
14.81549750434028
 10
10.10736762152777
 20
14.81549750434028
 10
10.06640625
 20
14.80984157986111
 10
10.03251139322916
 20
14.80560980902778
 10
10.03251139322916
 20
14.80560980902778
 10
10.09183756510416
 20
15.24629720052083
 10
10.09183756510416
 20
15.24629720052083
 10
10.09183756510416
 20
15.24629720052083
 10
10.5311279296875
 20
15.24629720052083
 10
10.5311279296875
 20
15.24629720052083
 10
10.5311279296875
 20
15.24629720052083
 10
10.5311279296875
 20
15.14177788628472
 10
10.5311279296875
 20
15.14177788628472
 97
        0
 97
        1
330
9D
 75
     2
 76
     1
 98
        1
 10
0.0
 20
0.0
450
        0
451
        0
460
0.0
461
0.0
452
        0
462
0.0
453
        0
470

  0
SPLINE
  5
9F
330
90
100
AcDbEntity
  8
0
100
AcDbSpline
210
0.0
220
0.0
230
1.0
 70
    11
 71
     3
 72
    17
 73
    13
 74
     0
 42
0.0000000001
 43
0.0000000001
 40
0.0
 40
0.0
 40
0.0
 40
0.0
 40
1.0
 40
1.0
 40
1.0
 40
2.0
 40
2.0
 40
2.0
 40
3.0
 40
3.0
 40
3.0
 40
4.0
 40
4.0
 40
4.0
 40
4.0
 10
11.04945203993055
 20
15.29573567708333
 30
0.0
 10
11.04945203993055
 20
15.29573567708333
 30
0.0
 10
11.02544487847222
 20
14.95674641927083
 30
0.0
 10
11.02544487847222
 20
14.95674641927083
 30
0.0
 10
11.02544487847222
 20
14.95674641927083
 30
0.0
 10
10.95057508680555
 20
14.95674641927083
 30
0.0
 10
10.95057508680555
 20
14.95674641927083
 30
0.0
 10
10.95057508680555
 20
14.95674641927083
 30
0.0
 10
10.92656792534722
 20
15.29573567708333
 30
0.0
 10
10.92656792534722
 20
15.29573567708333
 30
0.0
 10
10.92656792534722
 20
15.29573567708333
 30
0.0
 10
11.04945203993055
 20
15.29573567708333
 30
0.0
 10
11.04945203993055
 20
15.29573567708333
 30
0.0
  0
SPLINE
  5
A0
330
90
100
AcDbEntity
  8
0
100
AcDbSpline
210
0.0
220
0.0
230
1.0
 70
    11
 71
     3
 72
    17
 73
    13
 74
     0
 42
0.0000000001
 43
0.0000000001
 40
0.0
 40
0.0
 40
0.0
 40
0.0
 40
1.0
 40
1.0
 40
1.0
 40
2.0
 40
2.0
 40
2.0
 40
3.0
 40
3.0
 40
3.0
 40
4.0
 40
4.0
 40
4.0
 40
4.0
 10
10.8389892578125
 20
15.29573567708333
 30
0.0
 10
10.8389892578125
 20
15.29573567708333
 30
0.0
 10
10.81498209635416
 20
14.95674641927083
 30
0.0
 10
10.81498209635416
 20
14.95674641927083
 30
0.0
 10
10.81498209635416
 20
14.95674641927083
 30
0.0
 10
10.73870171440972
 20
14.95674641927083
 30
0.0
 10
10.73870171440972
 20
14.95674641927083
 30
0.0
 10
10.73870171440972
 20
14.95674641927083
 30
0.0
 10
10.71610514322916
 20
15.29573567708333
 30
0.0
 10
10.71610514322916
 20
15.29573567708333
 30
0.0
 10
10.71610514322916
 20
15.29573567708333
 30
0.0
 10
10.8389892578125
 20
15.29573567708333
 30
0.0
 10
10.8389892578125
 20
15.29573567708333
 30
0.0
  0
HATCH
  5
A1
330
90
100
AcDbEntity
  8
0
 62
    18
420
        0
440
 33554687
100
AcDbHatch
 10
0.0
 20
0.0
 30
0.0
210
0.0
220
0.0
230
1.0
  2
SOLID
 70
     1
 71
     1
 91
        2
 92
        1
 93
        1
 72
     4
 94
        3
 73
     0
 74
     0
 95
       17
 96
       13
 40
0.0
 40
0.0
 40
0.0
 40
0.0
 40
1.0
 40
1.0
 40
1.0
 40
2.0
 40
2.0
 40
2.0
 40
3.0
 40
3.0
 40
3.0
 40
4.0
 40
4.0
 40
4.0
 40
4.0
 10
11.04945203993055
 20
15.29573567708333
 10
11.04945203993055
 20
15.29573567708333
 10
11.02544487847222
 20
14.95674641927083
 10
11.02544487847222
 20
14.95674641927083
 10
11.02544487847222
 20
14.95674641927083
 10
10.95057508680555
 20
14.95674641927083
 10
10.95057508680555
 20
14.95674641927083
 10
10.95057508680555
 20
14.95674641927083
 10
10.92656792534722
 20
15.29573567708333
 10
10.92656792534722
 20
15.29573567708333
 10
10.92656792534722
 20
15.29573567708333
 10
11.04945203993055
 20
15.29573567708333
 10
11.04945203993055
 20
15.29573567708333
 97
        0
 97
        1
330
9F
 92
        1
 93
        1
 72
     4
 94
        3
 73
     0
 74
     0
 95
       17
 96
       13
 40
0.0
 40
0.0
 40
0.0
 40
0.0
 40
1.0
 40
1.0
 40
1.0
 40
2.0
 40
2.0
 40
2.0
 40
3.0
 40
3.0
 40
3.0
 40
4.0
 40
4.0
 40
4.0
 40
4.0
 10
10.8389892578125
 20
15.29573567708333
 10
10.8389892578125
 20
15.29573567708333
 10
10.81498209635416
 20
14.95674641927083
 10
10.81498209635416
 20
14.95674641927083
 10
10.81498209635416
 20
14.95674641927083
 10
10.73870171440972
 20
14.95674641927083
 10
10.73870171440972
 20
14.95674641927083
 10
10.73870171440972
 20
14.95674641927083
 10
10.71610514322916
 20
15.29573567708333
 10
10.71610514322916
 20
15.29573567708333
 10
10.71610514322916
 20
15.29573567708333
 10
10.8389892578125
 20
15.29573567708333
 10
10.8389892578125
 20
15.29573567708333
 97
        0
 97
        1
330
A0
 75
     2
 76
     1
 98
        1
 10
0.0
 20
0.0
450
        0
451
        0
460
0.0
461
0.0
452
        0
462
0.0
453
        0
470

  0
ENDBLK
  5
93
330
90
100
AcDbEntity
  8
0
100
AcDbBlockEnd
  0
BLOCK
  5
A4
330
A2
100
AcDbEntity
  8
0
100
AcDbBlockBegin
  2
Block_2
 70
     0
 10
0.0
 20
0.0
 30
0.0
  3
Block_2
  1

  0
INSERT
  5
A7
330
A2
100
AcDbEntity
  8
0
100
AcDbBlockReference
  2
Block_3
 10
0.0
 20
0.0
 30
0.0
  0
ENDBLK
  5
A5
330
A2
100
AcDbEntity
  8
0
100
AcDbBlockEnd
  0
BLOCK
  5
A8
330
A6
100
AcDbEntity
  8
0
100
AcDbBlockBegin
  2
Block_3
 70
     0
 10
0.0
 20
0.0
 30
0.0
  3
Block_3
  1

  0
SPLINE
  5
AA
330
A6
100
AcDbEntity
  8
0
100
AcDbSpline
210
0.0
220
0.0
230
1.0
 70
    11
 71
     3
 72
    47
 73
    43
 74
     0
 42
0.0000000001
 43
0.0000000001
 40
0.0
 40
0.0
 40
0.0
 40
0.0
 40
1.0
 40
1.0
 40
1.0
 40
2.0
 40
2.0
 40
2.0
 40
3.0
 40
3.0
 40
3.0
 40
4.0
 40
4.0
 40
4.0
 40
5.0
 40
5.0
 40
5.0
 40
6.0
 40
6.0
 40
6.0
 40
7.0
 40
7.0
 40
7.0
 40
8.0
 40
8.0
 40
8.0
 40
9.0
 40
9.0
 40
9.0
 40
10.0
 40
10.0
 40
10.0
 40
11.0
 40
11.0
 40
11.0
 40
12.0
 40
12.0
 40
12.0
 40
13.0
 40
13.0
 40
13.0
 40
14.0
 40
14.0
 40
14.0
 40
14.0
 10
7.517062717013888
 20
11.32817925347222
 30
0.0
 10
7.517062717013888
 20
11.32817925347222
 30
0.0
 10
7.517062717013888
 20
11.40445963541666
 30
0.0
 10
7.517062717013888
 20
11.40445963541666
 30
0.0
 10
7.517062717013888
 20
11.40445963541666
 30
0.0
 10
7.614515516493055
 20
11.49909125434027
 30
0.0
 10
7.614515516493055
 20
11.49909125434027
 30
0.0
 10
7.8489990234375
 20
11.72226291232639
 30
0.0
 10
7.954928927951388
 20
11.84091525607638
 30
0.0
 10
7.956339518229166
 20
11.97934299045138
 30
0.0
 10
7.956339518229166
 20
12.07256401909722
 30
0.0
 10
7.911146375868055
 20
12.15873209635417
 30
0.0
 10
7.774129231770833
 20
12.15873209635417
 30
0.0
 10
7.6907958984375
 20
12.15873209635417
 30
0.0
 10
7.62158203125
 20
12.11634657118055
 30
0.0
 10
7.579210069444443
 20
12.08104112413194
 30
0.0
 10
7.579210069444443
 20
12.08104112413194
 30
0.0
 10
7.539659288194443
 20
12.16861979166666
 30
0.0
 10
7.539659288194443
 20
12.16861979166666
 30
0.0
 10
7.603217230902777
 20
12.2222900390625
 30
0.0
 10
7.693617078993055
 20
12.2618408203125
 30
0.0
 10
7.799560546875
 20
12.2618408203125
 30
0.0
 10
7.997300889756943
 20
12.2618408203125
 30
0.0
 10
8.080647786458332
 20
12.12623426649305
 30
0.0
 10
8.080647786458332
 20
11.994873046875
 30
0.0
 10
8.080647786458332
 20
11.82538519965278
 30
0.0
 10
7.957750108506943
 20
11.68836805555555
 30
0.0
 10
7.764241536458333
 20
11.50191243489583
 30
0.0
 10
7.764241536458333
 20
11.50191243489583
 30
0.0
 10
7.6907958984375
 20
11.43412272135416
 30
0.0
 10
7.6907958984375
 20
11.43412272135416
 30
0.0
 10
7.6907958984375
 20
11.43412272135416
 30
0.0
 10
7.6907958984375
 20
11.43128797743055
 30
0.0
 10
7.6907958984375
 20
11.43128797743055
 30
0.0
 10
7.6907958984375
 20
11.43128797743055
 30
0.0
 10
8.103244357638889
 20
11.43128797743055
 30
0.0
 10
8.103244357638889
 20
11.43128797743055
 30
0.0
 10
8.103244357638889
 20
11.43128797743055
 30
0.0
 10
8.103244357638889
 20
11.32817925347222
 30
0.0
 10
8.103244357638889
 20
11.32817925347222
 30
0.0
 10
8.103244357638889
 20
11.32817925347222
 30
0.0
 10
7.517062717013888
 20
11.32817925347222
 30
0.0
 10
7.517062717013888
 20
11.32817925347222
 30
0.0
  0
HATCH
  5
AB
330
A6
100
AcDbEntity
  8
0
 62
    18
420
        0
440
 33554687
100
AcDbHatch
 10
0.0
 20
0.0
 30
0.0
210
0.0
220
0.0
230
1.0
  2
SOLID
 70
     1
 71
     1
 91
        1
 92
        1
 93
        1
 72
     4
 94
        3
 73
     0
 74
     0
 95
       47
 96
       43
 40
0.0
 40
0.0
 40
0.0
 40
0.0
 40
1.0
 40
1.0
 40
1.0
 40
2.0
 40
2.0
 40
2.0
 40
3.0
 40
3.0
 40
3.0
 40
4.0
 40
4.0
 40
4.0
 40
5.0
 40
5.0
 40
5.0
 40
6.0
 40
6.0
 40
6.0
 40
7.0
 40
7.0
 40
7.0
 40
8.0
 40
8.0
 40
8.0
 40
9.0
 40
9.0
 40
9.0
 40
10.0
 40
10.0
 40
10.0
 40
11.0
 40
11.0
 40
11.0
 40
12.0
 40
12.0
 40
12.0
 40
13.0
 40
13.0
 40
13.0
 40
14.0
 40
14.0
 40
14.0
 40
14.0
 10
7.517062717013888
 20
11.32817925347222
 10
7.517062717013888
 20
11.32817925347222
 10
7.517062717013888
 20
11.40445963541666
 10
7.517062717013888
 20
11.40445963541666
 10
7.517062717013888
 20
11.40445963541666
 10
7.614515516493055
 20
11.49909125434027
 10
7.614515516493055
 20
11.49909125434027
 10
7.8489990234375
 20
11.72226291232639
 10
7.954928927951388
 20
11.84091525607638
 10
7.956339518229166
 20
11.97934299045138
 10
7.956339518229166
 20
12.07256401909722
 10
7.911146375868055
 20
12.15873209635417
 10
7.774129231770833
 20
12.15873209635417
 10
7.6907958984375
 20
12.15873209635417
 10
7.62158203125
 20
12.11634657118055
 10
7.579210069444443
 20
12.08104112413194
 10
7.579210069444443
 20
12.08104112413194
 10
7.539659288194443
 20
12.16861979166666
 10
7.539659288194443
 20
12.16861979166666
 10
7.603217230902777
 20
12.2222900390625
 10
7.693617078993055
 20
12.2618408203125
 10
7.799560546875
 20
12.2618408203125
 10
7.997300889756943
 20
12.2618408203125
 10
8.080647786458332
 20
12.12623426649305
 10
8.080647786458332
 20
11.994873046875
 10
8.080647786458332
 20
11.82538519965278
 10
7.957750108506943
 20
11.68836805555555
 10
7.764241536458333
 20
11.50191243489583
 10
7.764241536458333
 20
11.50191243489583
 10
7.6907958984375
 20
11.43412272135416
 10
7.6907958984375
 20
11.43412272135416
 10
7.6907958984375
 20
11.43412272135416
 10
7.6907958984375
 20
11.43128797743055
 10
7.6907958984375
 20
11.43128797743055
 10
7.6907958984375
 20
11.43128797743055
 10
8.103244357638889
 20
11.43128797743055
 10
8.103244357638889
 20
11.43128797743055
 10
8.103244357638889
 20
11.43128797743055
 10
8.103244357638889
 20
11.32817925347222
 10
8.103244357638889
 20
11.32817925347222
 10
8.103244357638889
 20
11.32817925347222
 10
7.517062717013888
 20
11.32817925347222
 10
7.517062717013888
 20
11.32817925347222
 97
        0
 97
        1
330
AA
 75
     2
 76
     1
 98
        1
 10
0.0
 20
0.0
450
        0
451
        0
460
0.0
461
0.0
452
        0
462
0.0
453
        0
470

  0
SPLINE
  5
AC
330
A6
100
AcDbEntity
  8
0
100
AcDbSpline
210
0.0
220
0.0
230
1.0
 70
    11
 71
     3
 72
    29
 73
    25
 74
     0
 42
0.0000000001
 43
0.0000000001
 40
0.0
 40
0.0
 40
0.0
 40
0.0
 40
1.0
 40
1.0
 40
1.0
 40
2.0
 40
2.0
 40
2.0
 40
3.0
 40
3.0
 40
3.0
 40
4.0
 40
4.0
 40
4.0
 40
5.0
 40
5.0
 40
5.0
 40
6.0
 40
6.0
 40
6.0
 40
7.0
 40
7.0
 40
7.0
 40
8.0
 40
8.0
 40
8.0
 40
8.0
 10
8.837687174479166
 20
12.24629720052083
 30
0.0
 10
8.837687174479166
 20
12.24629720052083
 30
0.0
 10
8.837687174479166
 20
12.16437445746527
 30
0.0
 10
8.837687174479166
 20
12.16437445746527
 30
0.0
 10
8.837687174479166
 20
12.16437445746527
 30
0.0
 10
8.437947591145832
 20
11.32817925347222
 30
0.0
 10
8.437947591145832
 20
11.32817925347222
 30
0.0
 10
8.437947591145832
 20
11.32817925347222
 30
0.0
 10
8.309407552083332
 20
11.32817925347222
 30
0.0
 10
8.309407552083332
 20
11.32817925347222
 30
0.0
 10
8.309407552083332
 20
11.32817925347222
 30
0.0
 10
8.707736545138889
 20
12.14036729600694
 30
0.0
 10
8.707736545138889
 20
12.14036729600694
 30
0.0
 10
8.707736545138889
 20
12.14036729600694
 30
0.0
 10
8.707736545138889
 20
12.1431884765625
 30
0.0
 10
8.707736545138889
 20
12.1431884765625
 30
0.0
 10
8.707736545138889
 20
12.1431884765625
 30
0.0
 10
8.258558485243055
 20
12.1431884765625
 30
0.0
 10
8.258558485243055
 20
12.1431884765625
 30
0.0
 10
8.258558485243055
 20
12.1431884765625
 30
0.0
 10
8.258558485243055
 20
12.24629720052083
 30
0.0
 10
8.258558485243055
 20
12.24629720052083
 30
0.0
 10
8.258558485243055
 20
12.24629720052083
 30
0.0
 10
8.837687174479166
 20
12.24629720052083
 30
0.0
 10
8.837687174479166
 20
12.24629720052083
 30
0.0
  0
HATCH
  5
AD
330
A6
100
AcDbEntity
  8
0
 62
    18
420
        0
440
 33554687
100
AcDbHatch
 10
0.0
 20
0.0
 30
0.0
210
0.0
220
0.0
230
1.0
  2
SOLID
 70
     1
 71
     1
 91
        1
 92
        1
 93
        1
 72
     4
 94
        3
 73
     0
 74
     0
 95
       29
 96
       25
 40
0.0
 40
0.0
 40
0.0
 40
0.0
 40
1.0
 40
1.0
 40
1.0
 40
2.0
 40
2.0
 40
2.0
 40
3.0
 40
3.0
 40
3.0
 40
4.0
 40
4.0
 40
4.0
 40
5.0
 40
5.0
 40
5.0
 40
6.0
 40
6.0
 40
6.0
 40
7.0
 40
7.0
 40
7.0
 40
8.0
 40
8.0
 40
8.0
 40
8.0
 10
8.837687174479166
 20
12.24629720052083
 10
8.837687174479166
 20
12.24629720052083
 10
8.837687174479166
 20
12.16437445746527
 10
8.837687174479166
 20
12.16437445746527
 10
8.837687174479166
 20
12.16437445746527
 10
8.437947591145832
 20
11.32817925347222
 10
8.437947591145832
 20
11.32817925347222
 10
8.437947591145832
 20
11.32817925347222
 10
8.309407552083332
 20
11.32817925347222
 10
8.309407552083332
 20
11.32817925347222
 10
8.309407552083332
 20
11.32817925347222
 10
8.707736545138889
 20
12.14036729600694
 10
8.707736545138889
 20
12.14036729600694
 10
8.707736545138889
 20
12.14036729600694
 10
8.707736545138889
 20
12.1431884765625
 10
8.707736545138889
 20
12.1431884765625
 10
8.707736545138889
 20
12.1431884765625
 10
8.258558485243055
 20
12.1431884765625
 10
8.258558485243055
 20
12.1431884765625
 10
8.258558485243055
 20
12.1431884765625
 10
8.258558485243055
 20
12.24629720052083
 10
8.258558485243055
 20
12.24629720052083
 10
8.258558485243055
 20
12.24629720052083
 10
8.837687174479166
 20
12.24629720052083
 10
8.837687174479166
 20
12.24629720052083
 97
        0
 97
        1
330
AC
 75
     2
 76
     1
 98
        1
 10
0.0
 20
0.0
450
        0
451
        0
460
0.0
461
0.0
452
        0
462
0.0
453
        0
470

  0
SPLINE
  5
AE
330
A6
100
AcDbEntity
  8
0
100
AcDbSpline
210
0.0
220
0.0
230
1.0
 70
     9
 71
     3
 72
    17
 73
    13
 74
     0
 42
0.0000000001
 43
0.0000000001
 40
0.0
 40
0.0
 40
0.0
 40
0.0
 40
1.0
 40
1.0
 40
1.0
 40
2.0
 40
2.0
 40
2.0
 40
3.0
 40
3.0
 40
3.0
 40
4.0
 40
4.0
 40
4.0
 40
4.0
 10
8.976060655381944
 20
11.40162489149305
 30
0.0
 10
8.976060655381944
 20
11.45389811197916
 30
0.0
 10
9.011366102430555
 20
11.49061414930555
 30
0.0
 10
9.060804578993055
 20
11.49061414930555
 30
0.0
 10
9.110243055555555
 20
11.49061414930555
 30
0.0
 10
9.144137912326387
 20
11.45389811197916
 30
0.0
 10
9.144137912326387
 20
11.40162489149305
 30
0.0
 10
9.144137912326387
 20
11.35077582465277
 30
0.0
 10
9.111653645833332
 20
11.31263563368055
 30
0.0
 10
9.059393988715276
 20
11.31263563368055
 30
0.0
 10
9.009955512152776
 20
11.31263563368055
 30
0.0
 10
8.976060655381944
 20
11.35077582465277
 30
0.0
 10
8.976060655381944
 20
11.40162489149305
 30
0.0
  0
HATCH
  5
AF
330
A6
100
AcDbEntity
  8
0
 62
    18
420
        0
440
 33554687
100
AcDbHatch
 10
0.0
 20
0.0
 30
0.0
210
0.0
220
0.0
230
1.0
  2
SOLID
 70
     1
 71
     1
 91
        1
 92
        1
 93
        1
 72
     4
 94
        3
 73
     0
 74
     0
 95
       17
 96
       13
 40
0.0
 40
0.0
 40
0.0
 40
0.0
 40
1.0
 40
1.0
 40
1.0
 40
2.0
 40
2.0
 40
2.0
 40
3.0
 40
3.0
 40
3.0
 40
4.0
 40
4.0
 40
4.0
 40
4.0
 10
8.976060655381944
 20
11.40162489149305
 10
8.976060655381944
 20
11.45389811197916
 10
9.011366102430555
 20
11.49061414930555
 10
9.060804578993055
 20
11.49061414930555
 10
9.110243055555555
 20
11.49061414930555
 10
9.144137912326387
 20
11.45389811197916
 10
9.144137912326387
 20
11.40162489149305
 10
9.144137912326387
 20
11.35077582465277
 10
9.111653645833332
 20
11.31263563368055
 10
9.059393988715276
 20
11.31263563368055
 10
9.009955512152776
 20
11.31263563368055
 10
8.976060655381944
 20
11.35077582465277
 10
8.976060655381944
 20
11.40162489149305
 97
        0
 97
        1
330
AE
 75
     2
 76
     1
 98
        1
 10
0.0
 20
0.0
450
        0
451
        0
460
0.0
461
0.0
452
        0
462
0.0
453
        0
470

  0
SPLINE
  5
B0
330
A6
100
AcDbEntity
  8
0
100
AcDbSpline
210
0.0
220
0.0
230
1.0
 70
    11
 71
     3
 72
    29
 73
    25
 74
     0
 42
0.0000000001
 43
0.0000000001
 40
0.0
 40
0.0
 40
0.0
 40
0.0
 40
1.0
 40
1.0
 40
1.0
 40
2.0
 40
2.0
 40
2.0
 40
3.0
 40
3.0
 40
3.0
 40
4.0
 40
4.0
 40
4.0
 40
5.0
 40
5.0
 40
5.0
 40
6.0
 40
6.0
 40
6.0
 40
7.0
 40
7.0
 40
7.0
 40
8.0
 40
8.0
 40
8.0
 40
8.0
 10
9.854587131076387
 20
12.24629720052083
 30
0.0
 10
9.854587131076387
 20
12.24629720052083
 30
0.0
 10
9.854587131076387
 20
12.16437445746527
 30
0.0
 10
9.854587131076387
 20
12.16437445746527
 30
0.0
 10
9.854587131076387
 20
12.16437445746527
 30
0.0
 10
9.45486111111111
 20
11.32817925347222
 30
0.0
 10
9.45486111111111
 20
11.32817925347222
 30
0.0
 10
9.45486111111111
 20
11.32817925347222
 30
0.0
 10
9.32632107204861
 20
11.32817925347222
 30
0.0
 10
9.32632107204861
 20
11.32817925347222
 30
0.0
 10
9.32632107204861
 20
11.32817925347222
 30
0.0
 10
9.72463650173611
 20
12.14036729600694
 30
0.0
 10
9.72463650173611
 20
12.14036729600694
 30
0.0
 10
9.72463650173611
 20
12.14036729600694
 30
0.0
 10
9.72463650173611
 20
12.1431884765625
 30
0.0
 10
9.72463650173611
 20
12.1431884765625
 30
0.0
 10
9.72463650173611
 20
12.1431884765625
 30
0.0
 10
9.275472005208332
 20
12.1431884765625
 30
0.0
 10
9.275472005208332
 20
12.1431884765625
 30
0.0
 10
9.275472005208332
 20
12.1431884765625
 30
0.0
 10
9.275472005208332
 20
12.24629720052083
 30
0.0
 10
9.275472005208332
 20
12.24629720052083
 30
0.0
 10
9.275472005208332
 20
12.24629720052083
 30
0.0
 10
9.854587131076387
 20
12.24629720052083
 30
0.0
 10
9.854587131076387
 20
12.24629720052083
 30
0.0
  0
HATCH
  5
B1
330
A6
100
AcDbEntity
  8
0
 62
    18
420
        0
440
 33554687
100
AcDbHatch
 10
0.0
 20
0.0
 30
0.0
210
0.0
220
0.0
230
1.0
  2
SOLID
 70
     1
 71
     1
 91
        1
 92
        1
 93
        1
 72
     4
 94
        3
 73
     0
 74
     0
 95
       29
 96
       25
 40
0.0
 40
0.0
 40
0.0
 40
0.0
 40
1.0
 40
1.0
 40
1.0
 40
2.0
 40
2.0
 40
2.0
 40
3.0
 40
3.0
 40
3.0
 40
4.0
 40
4.0
 40
4.0
 40
5.0
 40
5.0
 40
5.0
 40
6.0
 40
6.0
 40
6.0
 40
7.0
 40
7.0
 40
7.0
 40
8.0
 40
8.0
 40
8.0
 40
8.0
 10
9.854587131076387
 20
12.24629720052083
 10
9.854587131076387
 20
12.24629720052083
 10
9.854587131076387
 20
12.16437445746527
 10
9.854587131076387
 20
12.16437445746527
 10
9.854587131076387
 20
12.16437445746527
 10
9.45486111111111
 20
11.32817925347222
 10
9.45486111111111
 20
11.32817925347222
 10
9.45486111111111
 20
11.32817925347222
 10
9.32632107204861
 20
11.32817925347222
 10
9.32632107204861
 20
11.32817925347222
 10
9.32632107204861
 20
11.32817925347222
 10
9.72463650173611
 20
12.14036729600694
 10
9.72463650173611
 20
12.14036729600694
 10
9.72463650173611
 20
12.14036729600694
 10
9.72463650173611
 20
12.1431884765625
 10
9.72463650173611
 20
12.1431884765625
 10
9.72463650173611
 20
12.1431884765625
 10
9.275472005208332
 20
12.1431884765625
 10
9.275472005208332
 20
12.1431884765625
 10
9.275472005208332
 20
12.1431884765625
 10
9.275472005208332
 20
12.24629720052083
 10
9.275472005208332
 20
12.24629720052083
 10
9.275472005208332
 20
12.24629720052083
 10
9.854587131076387
 20
12.24629720052083
 10
9.854587131076387
 20
12.24629720052083
 97
        0
 97
        1
330
B0
 75
     2
 76
     1
 98
        1
 10
0.0
 20
0.0
450
        0
451
        0
460
0.0
461
0.0
452
        0
462
0.0
453
        0
470

  0
SPLINE
  5
B2
330
A6
100
AcDbEntity
  8
0
100
AcDbSpline
210
0.0
220
0.0
230
1.0
 70
    11
 71
     3
 72
    50
 73
    46
 74
     0
 42
0.0000000001
 43
0.0000000001
 40
0.0
 40
0.0
 40
0.0
 40
0.0
 40
1.0
 40
1.0
 40
1.0
 40
2.0
 40
2.0
 40
2.0
 40
3.0
 40
3.0
 40
3.0
 40
4.0
 40
4.0
 40
4.0
 40
5.0
 40
5.0
 40
5.0
 40
6.0
 40
6.0
 40
6.0
 40
7.0
 40
7.0
 40
7.0
 40
8.0
 40
8.0
 40
8.0
 40
9.0
 40
9.0
 40
9.0
 40
10.0
 40
10.0
 40
10.0
 40
11.0
 40
11.0
 40
11.0
 40
12.0
 40
12.0
 40
12.0
 40
13.0
 40
13.0
 40
13.0
 40
14.0
 40
14.0
 40
14.0
 40
15.0
 40
15.0
 40
15.0
 40
15.0
 10
10.5311279296875
 20
12.14177788628472
 30
0.0
 10
10.5311279296875
 20
12.14177788628472
 30
0.0
 10
10.18082682291666
 20
12.14177788628472
 30
0.0
 10
10.18082682291666
 20
12.14177788628472
 30
0.0
 10
10.18082682291666
 20
12.14177788628472
 30
0.0
 10
10.1455078125
 20
11.90589735243055
 30
0.0
 10
10.1455078125
 20
11.90589735243055
 30
0.0
 10
10.16669379340277
 20
11.90871853298611
 30
0.0
 10
10.18646918402777
 20
11.91153971354166
 30
0.0
 10
10.22037760416666
 20
11.91153971354166
 30
0.0
 10
10.29100206163194
 20
11.91153971354166
 30
0.0
 10
10.36162651909722
 20
11.89600965711805
 30
0.0
 10
10.41811794704861
 20
11.86210123697916
 30
0.0
 10
10.49016655815972
 20
11.82113986545139
 30
0.0
 10
10.54947916666666
 20
11.74203830295138
 30
0.0
 10
10.54947916666666
 20
11.626220703125
 30
0.0
 10
10.54947916666666
 20
11.44683159722222
 30
0.0
 10
10.40681966145833
 20
11.31263563368055
 30
0.0
 10
10.20765516493055
 20
11.31263563368055
 30
0.0
 10
10.10736762152777
 20
11.31263563368055
 30
0.0
 10
10.02262369791666
 20
11.34088812934027
 30
0.0
 10
9.978841145833332
 20
11.369140625
 30
0.0
 10
9.978841145833332
 20
11.369140625
 30
0.0
 10
10.00991482204861
 20
11.46378580729166
 30
0.0
 10
10.00991482204861
 20
11.46378580729166
 30
0.0
 10
10.04805501302083
 20
11.44117567274305
 30
0.0
 10
10.12291124131944
 20
11.41292317708333
 30
0.0
 10
10.20624457465277
 20
11.41292317708333
 30
0.0
 10
10.323486328125
 20
11.41292317708333
 30
0.0
 10
10.42377387152777
 20
11.48920355902777
 30
0.0
 10
10.42377387152777
 20
11.61208767361111
 30
0.0
 10
10.42236328125
 20
11.73074001736111
 30
0.0
 10
10.34326171875
 20
11.81549750434027
 30
0.0
 10
10.15964084201389
 20
11.81549750434027
 30
0.0
 10
10.10736762152777
 20
11.81549750434027
 30
0.0
 10
10.06640625
 20
11.80984157986111
 30
0.0
 10
10.03251139322916
 20
11.80560980902777
 30
0.0
 10
10.03251139322916
 20
11.80560980902777
 30
0.0
 10
10.09183756510416
 20
12.24629720052083
 30
0.0
 10
10.09183756510416
 20
12.24629720052083
 30
0.0
 10
10.09183756510416
 20
12.24629720052083
 30
0.0
 10
10.5311279296875
 20
12.24629720052083
 30
0.0
 10
10.5311279296875
 20
12.24629720052083
 30
0.0
 10
10.5311279296875
 20
12.24629720052083
 30
0.0
 10
10.5311279296875
 20
12.14177788628472
 30
0.0
 10
10.5311279296875
 20
12.14177788628472
 30
0.0
  0
HATCH
  5
B3
330
A6
100
AcDbEntity
  8
0
 62
    18
420
        0
440
 33554687
100
AcDbHatch
 10
0.0
 20
0.0
 30
0.0
210
0.0
220
0.0
230
1.0
  2
SOLID
 70
     1
 71
     1
 91
        1
 92
        1
 93
        1
 72
     4
 94
        3
 73
     0
 74
     0
 95
       50
 96
       46
 40
0.0
 40
0.0
 40
0.0
 40
0.0
 40
1.0
 40
1.0
 40
1.0
 40
2.0
 40
2.0
 40
2.0
 40
3.0
 40
3.0
 40
3.0
 40
4.0
 40
4.0
 40
4.0
 40
5.0
 40
5.0
 40
5.0
 40
6.0
 40
6.0
 40
6.0
 40
7.0
 40
7.0
 40
7.0
 40
8.0
 40
8.0
 40
8.0
 40
9.0
 40
9.0
 40
9.0
 40
10.0
 40
10.0
 40
10.0
 40
11.0
 40
11.0
 40
11.0
 40
12.0
 40
12.0
 40
12.0
 40
13.0
 40
13.0
 40
13.0
 40
14.0
 40
14.0
 40
14.0
 40
15.0
 40
15.0
 40
15.0
 40
15.0
 10
10.5311279296875
 20
12.14177788628472
 10
10.5311279296875
 20
12.14177788628472
 10
10.18082682291666
 20
12.14177788628472
 10
10.18082682291666
 20
12.14177788628472
 10
10.18082682291666
 20
12.14177788628472
 10
10.1455078125
 20
11.90589735243055
 10
10.1455078125
 20
11.90589735243055
 10
10.16669379340277
 20
11.90871853298611
 10
10.18646918402777
 20
11.91153971354166
 10
10.22037760416666
 20
11.91153971354166
 10
10.29100206163194
 20
11.91153971354166
 10
10.36162651909722
 20
11.89600965711805
 10
10.41811794704861
 20
11.86210123697916
 10
10.49016655815972
 20
11.82113986545139
 10
10.54947916666666
 20
11.74203830295138
 10
10.54947916666666
 20
11.626220703125
 10
10.54947916666666
 20
11.44683159722222
 10
10.40681966145833
 20
11.31263563368055
 10
10.20765516493055
 20
11.31263563368055
 10
10.10736762152777
 20
11.31263563368055
 10
10.02262369791666
 20
11.34088812934027
 10
9.978841145833332
 20
11.369140625
 10
9.978841145833332
 20
11.369140625
 10
10.00991482204861
 20
11.46378580729166
 10
10.00991482204861
 20
11.46378580729166
 10
10.04805501302083
 20
11.44117567274305
 10
10.12291124131944
 20
11.41292317708333
 10
10.20624457465277
 20
11.41292317708333
 10
10.323486328125
 20
11.41292317708333
 10
10.42377387152777
 20
11.48920355902777
 10
10.42377387152777
 20
11.61208767361111
 10
10.42236328125
 20
11.73074001736111
 10
10.34326171875
 20
11.81549750434027
 10
10.15964084201389
 20
11.81549750434027
 10
10.10736762152777
 20
11.81549750434027
 10
10.06640625
 20
11.80984157986111
 10
10.03251139322916
 20
11.80560980902777
 10
10.03251139322916
 20
11.80560980902777
 10
10.09183756510416
 20
12.24629720052083
 10
10.09183756510416
 20
12.24629720052083
 10
10.09183756510416
 20
12.24629720052083
 10
10.5311279296875
 20
12.24629720052083
 10
10.5311279296875
 20
12.24629720052083
 10
10.5311279296875
 20
12.24629720052083
 10
10.5311279296875
 20
12.14177788628472
 10
10.5311279296875
 20
12.14177788628472
 97
        0
 97
        1
330
B2
 75
     2
 76
     1
 98
        1
 10
0.0
 20
0.0
450
        0
451
        0
460
0.0
461
0.0
452
        0
462
0.0
453
        0
470

  0
SPLINE
  5
B4
330
A6
100
AcDbEntity
  8
0
100
AcDbSpline
210
0.0
220
0.0
230
1.0
 70
    11
 71
     3
 72
    17
 73
    13
 74
     0
 42
0.0000000001
 43
0.0000000001
 40
0.0
 40
0.0
 40
0.0
 40
0.0
 40
1.0
 40
1.0
 40
1.0
 40
2.0
 40
2.0
 40
2.0
 40
3.0
 40
3.0
 40
3.0
 40
4.0
 40
4.0
 40
4.0
 40
4.0
 10
11.04945203993055
 20
12.29573567708333
 30
0.0
 10
11.04945203993055
 20
12.29573567708333
 30
0.0
 10
11.02544487847222
 20
11.95674641927083
 30
0.0
 10
11.02544487847222
 20
11.95674641927083
 30
0.0
 10
11.02544487847222
 20
11.95674641927083
 30
0.0
 10
10.95057508680555
 20
11.95674641927083
 30
0.0
 10
10.95057508680555
 20
11.95674641927083
 30
0.0
 10
10.95057508680555
 20
11.95674641927083
 30
0.0
 10
10.92656792534722
 20
12.29573567708333
 30
0.0
 10
10.92656792534722
 20
12.29573567708333
 30
0.0
 10
10.92656792534722
 20
12.29573567708333
 30
0.0
 10
11.04945203993055
 20
12.29573567708333
 30
0.0
 10
11.04945203993055
 20
12.29573567708333
 30
0.0
  0
SPLINE
  5
B5
330
A6
100
AcDbEntity
  8
0
100
AcDbSpline
210
0.0
220
0.0
230
1.0
 70
    11
 71
     3
 72
    17
 73
    13
 74
     0
 42
0.0000000001
 43
0.0000000001
 40
0.0
 40
0.0
 40
0.0
 40
0.0
 40
1.0
 40
1.0
 40
1.0
 40
2.0
 40
2.0
 40
2.0
 40
3.0
 40
3.0
 40
3.0
 40
4.0
 40
4.0
 40
4.0
 40
4.0
 10
10.8389892578125
 20
12.29573567708333
 30
0.0
 10
10.8389892578125
 20
12.29573567708333
 30
0.0
 10
10.81498209635416
 20
11.95674641927083
 30
0.0
 10
10.81498209635416
 20
11.95674641927083
 30
0.0
 10
10.81498209635416
 20
11.95674641927083
 30
0.0
 10
10.73870171440972
 20
11.95674641927083
 30
0.0
 10
10.73870171440972
 20
11.95674641927083
 30
0.0
 10
10.73870171440972
 20
11.95674641927083
 30
0.0
 10
10.71610514322916
 20
12.29573567708333
 30
0.0
 10
10.71610514322916
 20
12.29573567708333
 30
0.0
 10
10.71610514322916
 20
12.29573567708333
 30
0.0
 10
10.8389892578125
 20
12.29573567708333
 30
0.0
 10
10.8389892578125
 20
12.29573567708333
 30
0.0
  0
HATCH
  5
B6
330
A6
100
AcDbEntity
  8
0
 62
    18
420
        0
440
 33554687
100
AcDbHatch
 10
0.0
 20
0.0
 30
0.0
210
0.0
220
0.0
230
1.0
  2
SOLID
 70
     1
 71
     1
 91
        2
 92
        1
 93
        1
 72
     4
 94
        3
 73
     0
 74
     0
 95
       17
 96
       13
 40
0.0
 40
0.0
 40
0.0
 40
0.0
 40
1.0
 40
1.0
 40
1.0
 40
2.0
 40
2.0
 40
2.0
 40
3.0
 40
3.0
 40
3.0
 40
4.0
 40
4.0
 40
4.0
 40
4.0
 10
11.04945203993055
 20
12.29573567708333
 10
11.04945203993055
 20
12.29573567708333
 10
11.02544487847222
 20
11.95674641927083
 10
11.02544487847222
 20
11.95674641927083
 10
11.02544487847222
 20
11.95674641927083
 10
10.95057508680555
 20
11.95674641927083
 10
10.95057508680555
 20
11.95674641927083
 10
10.95057508680555
 20
11.95674641927083
 10
10.92656792534722
 20
12.29573567708333
 10
10.92656792534722
 20
12.29573567708333
 10
10.92656792534722
 20
12.29573567708333
 10
11.04945203993055
 20
12.29573567708333
 10
11.04945203993055
 20
12.29573567708333
 97
        0
 97
        1
330
B4
 92
        1
 93
        1
 72
     4
 94
        3
 73
     0
 74
     0
 95
       17
 96
       13
 40
0.0
 40
0.0
 40
0.0
 40
0.0
 40
1.0
 40
1.0
 40
1.0
 40
2.0
 40
2.0
 40
2.0
 40
3.0
 40
3.0
 40
3.0
 40
4.0
 40
4.0
 40
4.0
 40
4.0
 10
10.8389892578125
 20
12.29573567708333
 10
10.8389892578125
 20
12.29573567708333
 10
10.81498209635416
 20
11.95674641927083
 10
10.81498209635416
 20
11.95674641927083
 10
10.81498209635416
 20
11.95674641927083
 10
10.73870171440972
 20
11.95674641927083
 10
10.73870171440972
 20
11.95674641927083
 10
10.73870171440972
 20
11.95674641927083
 10
10.71610514322916
 20
12.29573567708333
 10
10.71610514322916
 20
12.29573567708333
 10
10.71610514322916
 20
12.29573567708333
 10
10.8389892578125
 20
12.29573567708333
 10
10.8389892578125
 20
12.29573567708333
 97
        0
 97
        1
330
B5
 75
     2
 76
     1
 98
        1
 10
0.0
 20
0.0
450
        0
451
        0
460
0.0
461
0.0
452
        0
462
0.0
453
        0
470

  0
ENDBLK
  5
A9
330
A6
100
AcDbEntity
  8
0
100
AcDbBlockEnd
  0
BLOCK
  5
B9
330
B7
100
AcDbEntity
  8
0
100
AcDbBlockBegin
  2
Block_4
 70
     0
 10
0.0
 20
0.0
 30
0.0
  3
Block_4
  1

  0
INSERT
  5
BC
330
B7
100
AcDbEntity
  8
0
100
AcDbBlockReference
  2
Block_5
 10
0.0
 20
0.0
 30
0.0
  0
ENDBLK
  5
BA
330
B7
100
AcDbEntity
  8
0
100
AcDbBlockEnd
  0
BLOCK
  5
BD
330
BB
100
AcDbEntity
  8
0
100
AcDbBlockBegin
  2
Block_5
 70
     0
 10
0.0
 20
0.0
 30
0.0
  3
Block_5
  1

  0
SPLINE
  5
BF
330
BB
100
AcDbEntity
  8
0
100
AcDbSpline
210
0.0
220
0.0
230
1.0
 70
    11
 71
     3
 72
    29
 73
    25
 74
     0
 42
0.0000000001
 43
0.0000000001
 40
0.0
 40
0.0
 40
0.0
 40
0.0
 40
1.0
 40
1.0
 40
1.0
 40
2.0
 40
2.0
 40
2.0
 40
3.0
 40
3.0
 40
3.0
 40
4.0
 40
4.0
 40
4.0
 40
5.0
 40
5.0
 40
5.0
 40
6.0
 40
6.0
 40
6.0
 40
7.0
 40
7.0
 40
7.0
 40
8.0
 40
8.0
 40
8.0
 40
8.0
 10
-10.34880913628472
 20
-3.338473849826388
 30
0.0
 10
-10.34880913628472
 20
-3.338473849826388
 30
0.0
 10
-10.34880913628472
 20
-3.341295030381944
 30
0.0
 10
-10.34880913628472
 20
-3.341295030381944
 30
0.0
 10
-10.34880913628472
 20
-3.341295030381944
 30
0.0
 10
-10.26264105902777
 20
-3.500908745659721
 30
0.0
 10
-10.26264105902777
 20
-3.500908745659721
 30
0.0
 10
-10.26264105902777
 20
-3.500908745659721
 30
0.0
 10
-10.35728624131944
 20
-3.52492947048611
 30
0.0
 10
-10.35728624131944
 20
-3.52492947048611
 30
0.0
 10
-10.35728624131944
 20
-3.52492947048611
 30
0.0
 10
-10.46462673611111
 20
-3.324354383680555
 30
0.0
 10
-10.46462673611111
 20
-3.324354383680555
 30
0.0
 10
-10.46462673611111
 20
-3.324354383680555
 30
0.0
 10
-10.46462673611111
 20
-3.21841091579861
 30
0.0
 10
-10.46462673611111
 20
-3.21841091579861
 30
0.0
 10
-10.46462673611111
 20
-3.21841091579861
 30
0.0
 10
-9.5465087890625
 20
-3.21841091579861
 30
0.0
 10
-9.5465087890625
 20
-3.21841091579861
 30
0.0
 10
-9.5465087890625
 20
-3.21841091579861
 30
0.0
 10
-9.5465087890625
 20
-3.338473849826388
 30
0.0
 10
-9.5465087890625
 20
-3.338473849826388
 30
0.0
 10
-9.5465087890625
 20
-3.338473849826388
 30
0.0
 10
-10.34880913628472
 20
-3.338473849826388
 30
0.0
 10
-10.34880913628472
 20
-3.338473849826388
 30
0.0
  0
HATCH
  5
C0
330
BB
100
AcDbEntity
  8
0
 62
    18
420
        0
440
 33554687
100
AcDbHatch
 10
0.0
 20
0.0
 30
0.0
210
0.0
220
0.0
230
1.0
  2
SOLID
 70
     1
 71
     1
 91
        1
 92
        1
 93
        1
 72
     4
 94
        3
 73
     0
 74
     0
 95
       29
 96
       25
 40
0.0
 40
0.0
 40
0.0
 40
0.0
 40
1.0
 40
1.0
 40
1.0
 40
2.0
 40
2.0
 40
2.0
 40
3.0
 40
3.0
 40
3.0
 40
4.0
 40
4.0
 40
4.0
 40
5.0
 40
5.0
 40
5.0
 40
6.0
 40
6.0
 40
6.0
 40
7.0
 40
7.0
 40
7.0
 40
8.0
 40
8.0
 40
8.0
 40
8.0
 10
-10.34880913628472
 20
-3.338473849826388
 10
-10.34880913628472
 20
-3.338473849826388
 10
-10.34880913628472
 20
-3.341295030381944
 10
-10.34880913628472
 20
-3.341295030381944
 10
-10.34880913628472
 20
-3.341295030381944
 10
-10.26264105902777
 20
-3.500908745659721
 10
-10.26264105902777
 20
-3.500908745659721
 10
-10.26264105902777
 20
-3.500908745659721
 10
-10.35728624131944
 20
-3.52492947048611
 10
-10.35728624131944
 20
-3.52492947048611
 10
-10.35728624131944
 20
-3.52492947048611
 10
-10.46462673611111
 20
-3.324354383680555
 10
-10.46462673611111
 20
-3.324354383680555
 10
-10.46462673611111
 20
-3.324354383680555
 10
-10.46462673611111
 20
-3.21841091579861
 10
-10.46462673611111
 20
-3.21841091579861
 10
-10.46462673611111
 20
-3.21841091579861
 10
-9.5465087890625
 20
-3.21841091579861
 10
-9.5465087890625
 20
-3.21841091579861
 10
-9.5465087890625
 20
-3.21841091579861
 10
-9.5465087890625
 20
-3.338473849826388
 10
-9.5465087890625
 20
-3.338473849826388
 10
-9.5465087890625
 20
-3.338473849826388
 10
-10.34880913628472
 20
-3.338473849826388
 10
-10.34880913628472
 20
-3.338473849826388
 97
        0
 97
        1
330
BF
 75
     2
 76
     1
 98
        1
 10
0.0
 20
0.0
450
        0
451
        0
460
0.0
461
0.0
452
        0
462
0.0
453
        0
470

  0
SPLINE
  5
C1
330
BB
100
AcDbEntity
  8
0
100
AcDbSpline
210
0.0
220
0.0
230
1.0
 70
    11
 71
     3
 72
    29
 73
    25
 74
     0
 42
0.0000000001
 43
0.0000000001
 40
0.0
 40
0.0
 40
0.0
 40
0.0
 40
1.0
 40
1.0
 40
1.0
 40
2.0
 40
2.0
 40
2.0
 40
3.0
 40
3.0
 40
3.0
 40
4.0
 40
4.0
 40
4.0
 40
5.0
 40
5.0
 40
5.0
 40
6.0
 40
6.0
 40
6.0
 40
7.0
 40
7.0
 40
7.0
 40
8.0
 40
8.0
 40
8.0
 40
8.0
 10
-10.46462673611111
 20
-2.287624782986111
 30
0.0
 10
-10.46462673611111
 20
-2.287624782986111
 30
0.0
 10
-10.38270399305555
 20
-2.287624782986111
 30
0.0
 10
-10.38270399305555
 20
-2.287624782986111
 30
0.0
 10
-10.38270399305555
 20
-2.287624782986111
 30
0.0
 10
-9.5465087890625
 20
-2.687364366319444
 30
0.0
 10
-9.5465087890625
 20
-2.687364366319444
 30
0.0
 10
-9.5465087890625
 20
-2.687364366319444
 30
0.0
 10
-9.5465087890625
 20
-2.815904405381944
 30
0.0
 10
-9.5465087890625
 20
-2.815904405381944
 30
0.0
 10
-9.5465087890625
 20
-2.815904405381944
 30
0.0
 10
-10.35869683159722
 20
-2.417588975694444
 30
0.0
 10
-10.35869683159722
 20
-2.417588975694444
 30
0.0
 10
-10.35869683159722
 20
-2.417588975694444
 30
0.0
 10
-10.36151801215277
 20
-2.417588975694444
 30
0.0
 10
-10.36151801215277
 20
-2.417588975694444
 30
0.0
 10
-10.36151801215277
 20
-2.417588975694444
 30
0.0
 10
-10.36151801215277
 20
-2.866753472222221
 30
0.0
 10
-10.36151801215277
 20
-2.866753472222221
 30
0.0
 10
-10.36151801215277
 20
-2.866753472222221
 30
0.0
 10
-10.46462673611111
 20
-2.866753472222221
 30
0.0
 10
-10.46462673611111
 20
-2.866753472222221
 30
0.0
 10
-10.46462673611111
 20
-2.866753472222221
 30
0.0
 10
-10.46462673611111
 20
-2.287624782986111
 30
0.0
 10
-10.46462673611111
 20
-2.287624782986111
 30
0.0
  0
HATCH
  5
C2
330
BB
100
AcDbEntity
  8
0
 62
    18
420
        0
440
 33554687
100
AcDbHatch
 10
0.0
 20
0.0
 30
0.0
210
0.0
220
0.0
230
1.0
  2
SOLID
 70
     1
 71
     1
 91
        1
 92
        1
 93
        1
 72
     4
 94
        3
 73
     0
 74
     0
 95
       29
 96
       25
 40
0.0
 40
0.0
 40
0.0
 40
0.0
 40
1.0
 40
1.0
 40
1.0
 40
2.0
 40
2.0
 40
2.0
 40
3.0
 40
3.0
 40
3.0
 40
4.0
 40
4.0
 40
4.0
 40
5.0
 40
5.0
 40
5.0
 40
6.0
 40
6.0
 40
6.0
 40
7.0
 40
7.0
 40
7.0
 40
8.0
 40
8.0
 40
8.0
 40
8.0
 10
-10.46462673611111
 20
-2.287624782986111
 10
-10.46462673611111
 20
-2.287624782986111
 10
-10.38270399305555
 20
-2.287624782986111
 10
-10.38270399305555
 20
-2.287624782986111
 10
-10.38270399305555
 20
-2.287624782986111
 10
-9.5465087890625
 20
-2.687364366319444
 10
-9.5465087890625
 20
-2.687364366319444
 10
-9.5465087890625
 20
-2.687364366319444
 10
-9.5465087890625
 20
-2.815904405381944
 10
-9.5465087890625
 20
-2.815904405381944
 10
-9.5465087890625
 20
-2.815904405381944
 10
-10.35869683159722
 20
-2.417588975694444
 10
-10.35869683159722
 20
-2.417588975694444
 10
-10.35869683159722
 20
-2.417588975694444
 10
-10.36151801215277
 20
-2.417588975694444
 10
-10.36151801215277
 20
-2.417588975694444
 10
-10.36151801215277
 20
-2.417588975694444
 10
-10.36151801215277
 20
-2.866753472222221
 10
-10.36151801215277
 20
-2.866753472222221
 10
-10.36151801215277
 20
-2.866753472222221
 10
-10.46462673611111
 20
-2.866753472222221
 10
-10.46462673611111
 20
-2.866753472222221
 10
-10.46462673611111
 20
-2.866753472222221
 10
-10.46462673611111
 20
-2.287624782986111
 10
-10.46462673611111
 20
-2.287624782986111
 97
        0
 97
        1
330
C1
 75
     2
 76
     1
 98
        1
 10
0.0
 20
0.0
450
        0
451
        0
460
0.0
461
0.0
452
        0
462
0.0
453
        0
470

  0
SPLINE
  5
C3
330
BB
100
AcDbEntity
  8
0
100
AcDbSpline
210
0.0
220
0.0
230
1.0
 70
    11
 71
     3
 72
    17
 73
    13
 74
     0
 42
0.0000000001
 43
0.0000000001
 40
0.0
 40
0.0
 40
0.0
 40
0.0
 40
1.0
 40
1.0
 40
1.0
 40
2.0
 40
2.0
 40
2.0
 40
3.0
 40
3.0
 40
3.0
 40
4.0
 40
4.0
 40
4.0
 40
4.0
 10
-10.51406521267361
 20
-2.027777777777777
 30
0.0
 10
-10.51406521267361
 20
-2.027777777777777
 30
0.0
 10
-10.17507595486111
 20
-2.051798502604166
 30
0.0
 10
-10.17507595486111
 20
-2.051798502604166
 30
0.0
 10
-10.17507595486111
 20
-2.051798502604166
 30
0.0
 10
-10.17507595486111
 20
-2.128065321180555
 30
0.0
 10
-10.17507595486111
 20
-2.128065321180555
 30
0.0
 10
-10.17507595486111
 20
-2.128065321180555
 30
0.0
 10
-10.51406521267361
 20
-2.150675455729166
 30
0.0
 10
-10.51406521267361
 20
-2.150675455729166
 30
0.0
 10
-10.51406521267361
 20
-2.150675455729166
 30
0.0
 10
-10.51406521267361
 20
-2.027777777777777
 30
0.0
 10
-10.51406521267361
 20
-2.027777777777777
 30
0.0
  0
SPLINE
  5
C4
330
BB
100
AcDbEntity
  8
0
100
AcDbSpline
210
0.0
220
0.0
230
1.0
 70
    11
 71
     3
 72
    17
 73
    13
 74
     0
 42
0.0000000001
 43
0.0000000001
 40
0.0
 40
0.0
 40
0.0
 40
0.0
 40
1.0
 40
1.0
 40
1.0
 40
2.0
 40
2.0
 40
2.0
 40
3.0
 40
3.0
 40
3.0
 40
4.0
 40
4.0
 40
4.0
 40
4.0
 10
-10.51406521267361
 20
-1.817328559027777
 30
0.0
 10
-10.51406521267361
 20
-1.817328559027777
 30
0.0
 10
-10.17507595486111
 20
-1.84133572048611
 30
0.0
 10
-10.17507595486111
 20
-1.84133572048611
 30
0.0
 10
-10.17507595486111
 20
-1.84133572048611
 30
0.0
 10
-10.17507595486111
 20
-1.916205512152777
 30
0.0
 10
-10.17507595486111
 20
-1.916205512152777
 30
0.0
 10
-10.17507595486111
 20
-1.916205512152777
 30
0.0
 10
-10.51406521267361
 20
-1.94021267361111
 30
0.0
 10
-10.51406521267361
 20
-1.94021267361111
 30
0.0
 10
-10.51406521267361
 20
-1.94021267361111
 30
0.0
 10
-10.51406521267361
 20
-1.817328559027777
 30
0.0
 10
-10.51406521267361
 20
-1.817328559027777
 30
0.0
  0
HATCH
  5
C5
330
BB
100
AcDbEntity
  8
0
 62
    18
420
        0
440
 33554687
100
AcDbHatch
 10
0.0
 20
0.0
 30
0.0
210
0.0
220
0.0
230
1.0
  2
SOLID
 70
     1
 71
     1
 91
        2
 92
        1
 93
        1
 72
     4
 94
        3
 73
     0
 74
     0
 95
       17
 96
       13
 40
0.0
 40
0.0
 40
0.0
 40
0.0
 40
1.0
 40
1.0
 40
1.0
 40
2.0
 40
2.0
 40
2.0
 40
3.0
 40
3.0
 40
3.0
 40
4.0
 40
4.0
 40
4.0
 40
4.0
 10
-10.51406521267361
 20
-2.027777777777777
 10
-10.51406521267361
 20
-2.027777777777777
 10
-10.17507595486111
 20
-2.051798502604166
 10
-10.17507595486111
 20
-2.051798502604166
 10
-10.17507595486111
 20
-2.051798502604166
 10
-10.17507595486111
 20
-2.128065321180555
 10
-10.17507595486111
 20
-2.128065321180555
 10
-10.17507595486111
 20
-2.128065321180555
 10
-10.51406521267361
 20
-2.150675455729166
 10
-10.51406521267361
 20
-2.150675455729166
 10
-10.51406521267361
 20
-2.150675455729166
 10
-10.51406521267361
 20
-2.027777777777777
 10
-10.51406521267361
 20
-2.027777777777777
 97
        0
 97
        1
330
C3
 92
        1
 93
        1
 72
     4
 94
        3
 73
     0
 74
     0
 95
       17
 96
       13
 40
0.0
 40
0.0
 40
0.0
 40
0.0
 40
1.0
 40
1.0
 40
1.0
 40
2.0
 40
2.0
 40
2.0
 40
3.0
 40
3.0
 40
3.0
 40
4.0
 40
4.0
 40
4.0
 40
4.0
 10
-10.51406521267361
 20
-1.817328559027777
 10
-10.51406521267361
 20
-1.817328559027777
 10
-10.17507595486111
 20
-1.84133572048611
 10
-10.17507595486111
 20
-1.84133572048611
 10
-10.17507595486111
 20
-1.84133572048611
 10
-10.17507595486111
 20
-1.916205512152777
 10
-10.17507595486111
 20
-1.916205512152777
 10
-10.17507595486111
 20
-1.916205512152777
 10
-10.51406521267361
 20
-1.94021267361111
 10
-10.51406521267361
 20
-1.94021267361111
 10
-10.51406521267361
 20
-1.94021267361111
 10
-10.51406521267361
 20
-1.817328559027777
 10
-10.51406521267361
 20
-1.817328559027777
 97
        0
 97
        1
330
C4
 75
     2
 76
     1
 98
        1
 10
0.0
 20
0.0
450
        0
451
        0
460
0.0
461
0.0
452
        0
462
0.0
453
        0
470

  0
ENDBLK
  5
BE
330
BB
100
AcDbEntity
  8
0
100
AcDbBlockEnd
  0
BLOCK
  5
C8
330
C6
100
AcDbEntity
  8
0
100
AcDbBlockBegin
  2
Block_6
 70
     0
 10
0.0
 20
0.0
 30
0.0
  3
Block_6
  1

  0
INSERT
  5
CB
330
C6
100
AcDbEntity
  8
0
100
AcDbBlockReference
  2
Block_7
 10
0.0
 20
0.0
 30
0.0
  0
ENDBLK
  5
C9
330
C6
100
AcDbEntity
  8
0
100
AcDbBlockEnd
  0
BLOCK
  5
CC
330
CA
100
AcDbEntity
  8
0
100
AcDbBlockBegin
  2
Block_7
 70
     0
 10
0.0
 20
0.0
 30
0.0
  3
Block_7
  1

  0
SPLINE
  5
CE
330
CA
100
AcDbEntity
  8
0
100
AcDbSpline
210
0.0
220
0.0
230
1.0
 70
    11
 71
     3
 72
    29
 73
    25
 74
     0
 42
0.0000000001
 43
0.0000000001
 40
0.0
 40
0.0
 40
0.0
 40
0.0
 40
1.0
 40
1.0
 40
1.0
 40
2.0
 40
2.0
 40
2.0
 40
3.0
 40
3.0
 40
3.0
 40
4.0
 40
4.0
 40
4.0
 40
5.0
 40
5.0
 40
5.0
 40
6.0
 40
6.0
 40
6.0
 40
7.0
 40
7.0
 40
7.0
 40
8.0
 40
8.0
 40
8.0
 40
8.0
 10
-13.34880913628472
 20
-3.338473849826388
 30
0.0
 10
-13.34880913628472
 20
-3.338473849826388
 30
0.0
 10
-13.34880913628472
 20
-3.341295030381944
 30
0.0
 10
-13.34880913628472
 20
-3.341295030381944
 30
0.0
 10
-13.34880913628472
 20
-3.341295030381944
 30
0.0
 10
-13.26264105902777
 20
-3.500908745659721
 30
0.0
 10
-13.26264105902777
 20
-3.500908745659721
 30
0.0
 10
-13.26264105902777
 20
-3.500908745659721
 30
0.0
 10
-13.35728624131944
 20
-3.52492947048611
 30
0.0
 10
-13.35728624131944
 20
-3.52492947048611
 30
0.0
 10
-13.35728624131944
 20
-3.52492947048611
 30
0.0
 10
-13.46462673611111
 20
-3.324354383680555
 30
0.0
 10
-13.46462673611111
 20
-3.324354383680555
 30
0.0
 10
-13.46462673611111
 20
-3.324354383680555
 30
0.0
 10
-13.46462673611111
 20
-3.21841091579861
 30
0.0
 10
-13.46462673611111
 20
-3.21841091579861
 30
0.0
 10
-13.46462673611111
 20
-3.21841091579861
 30
0.0
 10
-12.5465087890625
 20
-3.21841091579861
 30
0.0
 10
-12.5465087890625
 20
-3.21841091579861
 30
0.0
 10
-12.5465087890625
 20
-3.21841091579861
 30
0.0
 10
-12.5465087890625
 20
-3.338473849826388
 30
0.0
 10
-12.5465087890625
 20
-3.338473849826388
 30
0.0
 10
-12.5465087890625
 20
-3.338473849826388
 30
0.0
 10
-13.34880913628472
 20
-3.338473849826388
 30
0.0
 10
-13.34880913628472
 20
-3.338473849826388
 30
0.0
  0
HATCH
  5
CF
330
CA
100
AcDbEntity
  8
0
 62
    18
420
        0
440
 33554687
100
AcDbHatch
 10
0.0
 20
0.0
 30
0.0
210
0.0
220
0.0
230
1.0
  2
SOLID
 70
     1
 71
     1
 91
        1
 92
        1
 93
        1
 72
     4
 94
        3
 73
     0
 74
     0
 95
       29
 96
       25
 40
0.0
 40
0.0
 40
0.0
 40
0.0
 40
1.0
 40
1.0
 40
1.0
 40
2.0
 40
2.0
 40
2.0
 40
3.0
 40
3.0
 40
3.0
 40
4.0
 40
4.0
 40
4.0
 40
5.0
 40
5.0
 40
5.0
 40
6.0
 40
6.0
 40
6.0
 40
7.0
 40
7.0
 40
7.0
 40
8.0
 40
8.0
 40
8.0
 40
8.0
 10
-13.34880913628472
 20
-3.338473849826388
 10
-13.34880913628472
 20
-3.338473849826388
 10
-13.34880913628472
 20
-3.341295030381944
 10
-13.34880913628472
 20
-3.341295030381944
 10
-13.34880913628472
 20
-3.341295030381944
 10
-13.26264105902777
 20
-3.500908745659721
 10
-13.26264105902777
 20
-3.500908745659721
 10
-13.26264105902777
 20
-3.500908745659721
 10
-13.35728624131944
 20
-3.52492947048611
 10
-13.35728624131944
 20
-3.52492947048611
 10
-13.35728624131944
 20
-3.52492947048611
 10
-13.46462673611111
 20
-3.324354383680555
 10
-13.46462673611111
 20
-3.324354383680555
 10
-13.46462673611111
 20
-3.324354383680555
 10
-13.46462673611111
 20
-3.21841091579861
 10
-13.46462673611111
 20
-3.21841091579861
 10
-13.46462673611111
 20
-3.21841091579861
 10
-12.5465087890625
 20
-3.21841091579861
 10
-12.5465087890625
 20
-3.21841091579861
 10
-12.5465087890625
 20
-3.21841091579861
 10
-12.5465087890625
 20
-3.338473849826388
 10
-12.5465087890625
 20
-3.338473849826388
 10
-12.5465087890625
 20
-3.338473849826388
 10
-13.34880913628472
 20
-3.338473849826388
 10
-13.34880913628472
 20
-3.338473849826388
 97
        0
 97
        1
330
CE
 75
     2
 76
     1
 98
        1
 10
0.0
 20
0.0
450
        0
451
        0
460
0.0
461
0.0
452
        0
462
0.0
453
        0
470

  0
SPLINE
  5
D0
330
CA
100
AcDbEntity
  8
0
100
AcDbSpline
210
0.0
220
0.0
230
1.0
 70
     9
 71
     3
 72
    20
 73
    16
 74
     0
 42
0.0000000001
 43
0.0000000001
 40
0.0
 40
0.0
 40
0.0
 40
0.0
 40
1.0
 40
1.0
 40
1.0
 40
2.0
 40
2.0
 40
2.0
 40
3.0
 40
3.0
 40
3.0
 40
4.0
 40
4.0
 40
4.0
 40
5.0
 40
5.0
 40
5.0
 40
5.0
 10
-13.162353515625
 20
-2.766465928819444
 30
0.0
 10
-13.04794650607639
 20
-2.766465928819444
 30
0.0
 10
-12.96743435329861
 20
-2.697252061631944
 30
0.0
 10
-12.96743435329861
 20
-2.589898003472221
 30
0.0
 10
-12.96743435329861
 20
-2.506564670138888
 30
0.0
 10
-13.00839572482639
 20
-2.441596137152777
 30
0.0
 10
-13.0634765625
 20
-2.409098307291666
 30
0.0
 10
-13.07478841145833
 20
-2.402045355902777
 30
0.0
 10
-13.08890787760417
 20
-2.397813585069444
 30
0.0
 10
-13.10868326822916
 20
-2.397813585069444
 30
0.0
 10
-13.26547580295138
 20
-2.397813585069444
 30
0.0
 10
-13.38553873697917
 20
-2.455715603298611
 30
0.0
 10
-13.38553873697917
 20
-2.585666232638888
 30
0.0
 10
-13.38553873697917
 20
-2.691596137152777
 30
0.0
 10
-13.29230414496527
 20
-2.766465928819444
 30
0.0
 10
-13.162353515625
 20
-2.766465928819444
 30
0.0
  0
SPLINE
  5
D1
330
CA
100
AcDbEntity
  8
0
100
AcDbSpline
210
0.0
220
0.0
230
1.0
 70
     9
 71
     3
 72
    41
 73
    37
 74
     0
 42
0.0000000001
 43
0.0000000001
 40
0.0
 40
0.0
 40
0.0
 40
0.0
 40
1.0
 40
1.0
 40
1.0
 40
2.0
 40
2.0
 40
2.0
 40
3.0
 40
3.0
 40
3.0
 40
4.0
 40
4.0
 40
4.0
 40
5.0
 40
5.0
 40
5.0
 40
6.0
 40
6.0
 40
6.0
 40
7.0
 40
7.0
 40
7.0
 40
8.0
 40
8.0
 40
8.0
 40
9.0
 40
9.0
 40
9.0
 40
10.0
 40
10.0
 40
10.0
 40
11.0
 40
11.0
 40
11.0
 40
12.0
 40
12.0
 40
12.0
 40
12.0
 10
-12.63408745659722
 20
-2.811659071180555
 30
0.0
 10
-12.63125271267361
 20
-2.784830729166666
 30
0.0
 10
-12.63408745659722
 20
-2.753743489583333
 30
0.0
 10
-12.63831922743055
 20
-2.711371527777777
 30
0.0
 10
-12.64820692274305
 20
-2.639350043402777
 30
0.0
 10
-12.67787000868055
 20
-2.571533203125
 30
0.0
 10
-12.72730848524305
 20
-2.519287109375
 30
0.0
 10
-12.78238932291666
 20
-2.458550347222221
 30
0.0
 10
-12.8629150390625
 20
-2.414754231770833
 30
0.0
 10
-12.97166612413194
 20
-2.397813585069444
 30
0.0
 10
-12.97166612413194
 20
-2.397813585069444
 30
0.0
 10
-12.97166612413194
 20
-2.402045355902777
 30
0.0
 10
-12.97166612413194
 20
-2.402045355902777
 30
0.0
 10
-12.90951877170139
 20
-2.452894422743055
 30
0.0
 10
-12.87278917100694
 20
-2.526340060763888
 30
0.0
 10
-12.87278917100694
 20
-2.618150499131944
 30
0.0
 10
-12.87278917100694
 20
-2.783420138888888
 30
0.0
 10
-12.99709743923611
 20
-2.889350043402777
 30
0.0
 10
-13.15387641059027
 20
-2.889350043402777
 30
0.0
 10
-13.32762315538194
 20
-2.889350043402777
 30
0.0
 10
-13.48017035590278
 20
-2.763644748263888
 30
0.0
 10
-13.48017035590278
 20
-2.575778537326388
 30
0.0
 10
-13.48017035590278
 20
-2.387912326388888
 30
0.0
 10
-13.32762315538194
 20
-2.2720947265625
 30
0.0
 10
-13.0931396484375
 20
-2.2720947265625
 30
0.0
 10
-12.89115397135416
 20
-2.2720947265625
 30
0.0
 10
-12.74990505642361
 20
-2.339898003472221
 30
0.0
 10
-12.66233995225694
 20
-2.430284288194444
 30
0.0
 10
-12.59312608506944
 20
-2.500922309027777
 30
0.0
 10
-12.55074055989583
 20
-2.598388671875
 30
0.0
 10
-12.53944227430555
 20
-2.697252061631944
 30
0.0
 10
-12.53238932291666
 20
-2.742458767361111
 30
0.0
 10
-12.53096516927083
 20
-2.782009548611111
 30
0.0
 10
-12.53238932291666
 20
-2.811659071180555
 30
0.0
 10
-12.53238932291666
 20
-2.811659071180555
 30
0.0
 10
-12.63408745659722
 20
-2.811659071180555
 30
0.0
 10
-12.63408745659722
 20
-2.811659071180555
 30
0.0
  0
HATCH
  5
D2
330
CA
100
AcDbEntity
  8
0
 62
    18
420
        0
440
 33554687
100
AcDbHatch
 10
0.0
 20
0.0
 30
0.0
210
0.0
220
0.0
230
1.0
  2
SOLID
 70
     1
 71
     1
 91
        2
 92
        1
 93
        1
 72
     4
 94
        3
 73
     0
 74
     0
 95
       20
 96
       16
 40
0.0
 40
0.0
 40
0.0
 40
0.0
 40
1.0
 40
1.0
 40
1.0
 40
2.0
 40
2.0
 40
2.0
 40
3.0
 40
3.0
 40
3.0
 40
4.0
 40
4.0
 40
4.0
 40
5.0
 40
5.0
 40
5.0
 40
5.0
 10
-13.162353515625
 20
-2.766465928819444
 10
-13.04794650607639
 20
-2.766465928819444
 10
-12.96743435329861
 20
-2.697252061631944
 10
-12.96743435329861
 20
-2.589898003472221
 10
-12.96743435329861
 20
-2.506564670138888
 10
-13.00839572482639
 20
-2.441596137152777
 10
-13.0634765625
 20
-2.409098307291666
 10
-13.07478841145833
 20
-2.402045355902777
 10
-13.08890787760417
 20
-2.397813585069444
 10
-13.10868326822916
 20
-2.397813585069444
 10
-13.26547580295138
 20
-2.397813585069444
 10
-13.38553873697917
 20
-2.455715603298611
 10
-13.38553873697917
 20
-2.585666232638888
 10
-13.38553873697917
 20
-2.691596137152777
 10
-13.29230414496527
 20
-2.766465928819444
 10
-13.162353515625
 20
-2.766465928819444
 97
        0
 97
        1
330
D0
 92
        1
 93
        1
 72
     4
 94
        3
 73
     0
 74
     0
 95
       41
 96
       37
 40
0.0
 40
0.0
 40
0.0
 40
0.0
 40
1.0
 40
1.0
 40
1.0
 40
2.0
 40
2.0
 40
2.0
 40
3.0
 40
3.0
 40
3.0
 40
4.0
 40
4.0
 40
4.0
 40
5.0
 40
5.0
 40
5.0
 40
6.0
 40
6.0
 40
6.0
 40
7.0
 40
7.0
 40
7.0
 40
8.0
 40
8.0
 40
8.0
 40
9.0
 40
9.0
 40
9.0
 40
10.0
 40
10.0
 40
10.0
 40
11.0
 40
11.0
 40
11.0
 40
12.0
 40
12.0
 40
12.0
 40
12.0
 10
-12.63408745659722
 20
-2.811659071180555
 10
-12.63125271267361
 20
-2.784830729166666
 10
-12.63408745659722
 20
-2.753743489583333
 10
-12.63831922743055
 20
-2.711371527777777
 10
-12.64820692274305
 20
-2.639350043402777
 10
-12.67787000868055
 20
-2.571533203125
 10
-12.72730848524305
 20
-2.519287109375
 10
-12.78238932291666
 20
-2.458550347222221
 10
-12.8629150390625
 20
-2.414754231770833
 10
-12.97166612413194
 20
-2.397813585069444
 10
-12.97166612413194
 20
-2.397813585069444
 10
-12.97166612413194
 20
-2.402045355902777
 10
-12.97166612413194
 20
-2.402045355902777
 10
-12.90951877170139
 20
-2.452894422743055
 10
-12.87278917100694
 20
-2.526340060763888
 10
-12.87278917100694
 20
-2.618150499131944
 10
-12.87278917100694
 20
-2.783420138888888
 10
-12.99709743923611
 20
-2.889350043402777
 10
-13.15387641059027
 20
-2.889350043402777
 10
-13.32762315538194
 20
-2.889350043402777
 10
-13.48017035590278
 20
-2.763644748263888
 10
-13.48017035590278
 20
-2.575778537326388
 10
-13.48017035590278
 20
-2.387912326388888
 10
-13.32762315538194
 20
-2.2720947265625
 10
-13.0931396484375
 20
-2.2720947265625
 10
-12.89115397135416
 20
-2.2720947265625
 10
-12.74990505642361
 20
-2.339898003472221
 10
-12.66233995225694
 20
-2.430284288194444
 10
-12.59312608506944
 20
-2.500922309027777
 10
-12.55074055989583
 20
-2.598388671875
 10
-12.53944227430555
 20
-2.697252061631944
 10
-12.53238932291666
 20
-2.742458767361111
 10
-12.53096516927083
 20
-2.782009548611111
 10
-12.53238932291666
 20
-2.811659071180555
 10
-12.53238932291666
 20
-2.811659071180555
 10
-12.63408745659722
 20
-2.811659071180555
 10
-12.63408745659722
 20
-2.811659071180555
 97
        0
 97
        1
330
D1
 75
     2
 76
     1
 98
        1
 10
0.0
 20
0.0
450
        0
451
        0
460
0.0
461
0.0
452
        0
462
0.0
453
        0
470

  0
SPLINE
  5
D3
330
CA
100
AcDbEntity
  8
0
100
AcDbSpline
210
0.0
220
0.0
230
1.0
 70
    11
 71
     3
 72
    17
 73
    13
 74
     0
 42
0.0000000001
 43
0.0000000001
 40
0.0
 40
0.0
 40
0.0
 40
0.0
 40
1.0
 40
1.0
 40
1.0
 40
2.0
 40
2.0
 40
2.0
 40
3.0
 40
3.0
 40
3.0
 40
4.0
 40
4.0
 40
4.0
 40
4.0
 10
-13.51406521267361
 20
-2.027777777777777
 30
0.0
 10
-13.51406521267361
 20
-2.027777777777777
 30
0.0
 10
-13.17507595486111
 20
-2.051798502604166
 30
0.0
 10
-13.17507595486111
 20
-2.051798502604166
 30
0.0
 10
-13.17507595486111
 20
-2.051798502604166
 30
0.0
 10
-13.17507595486111
 20
-2.128065321180555
 30
0.0
 10
-13.17507595486111
 20
-2.128065321180555
 30
0.0
 10
-13.17507595486111
 20
-2.128065321180555
 30
0.0
 10
-13.51406521267361
 20
-2.150675455729166
 30
0.0
 10
-13.51406521267361
 20
-2.150675455729166
 30
0.0
 10
-13.51406521267361
 20
-2.150675455729166
 30
0.0
 10
-13.51406521267361
 20
-2.027777777777777
 30
0.0
 10
-13.51406521267361
 20
-2.027777777777777
 30
0.0
  0
SPLINE
  5
D4
330
CA
100
AcDbEntity
  8
0
100
AcDbSpline
210
0.0
220
0.0
230
1.0
 70
    11
 71
     3
 72
    17
 73
    13
 74
     0
 42
0.0000000001
 43
0.0000000001
 40
0.0
 40
0.0
 40
0.0
 40
0.0
 40
1.0
 40
1.0
 40
1.0
 40
2.0
 40
2.0
 40
2.0
 40
3.0
 40
3.0
 40
3.0
 40
4.0
 40
4.0
 40
4.0
 40
4.0
 10
-13.51406521267361
 20
-1.817328559027777
 30
0.0
 10
-13.51406521267361
 20
-1.817328559027777
 30
0.0
 10
-13.17507595486111
 20
-1.84133572048611
 30
0.0
 10
-13.17507595486111
 20
-1.84133572048611
 30
0.0
 10
-13.17507595486111
 20
-1.84133572048611
 30
0.0
 10
-13.17507595486111
 20
-1.916205512152777
 30
0.0
 10
-13.17507595486111
 20
-1.916205512152777
 30
0.0
 10
-13.17507595486111
 20
-1.916205512152777
 30
0.0
 10
-13.51406521267361
 20
-1.94021267361111
 30
0.0
 10
-13.51406521267361
 20
-1.94021267361111
 30
0.0
 10
-13.51406521267361
 20
-1.94021267361111
 30
0.0
 10
-13.51406521267361
 20
-1.817328559027777
 30
0.0
 10
-13.51406521267361
 20
-1.817328559027777
 30
0.0
  0
HATCH
  5
D5
330
CA
100
AcDbEntity
  8
0
 62
    18
420
        0
440
 33554687
100
AcDbHatch
 10
0.0
 20
0.0
 30
0.0
210
0.0
220
0.0
230
1.0
  2
SOLID
 70
     1
 71
     1
 91
        2
 92
        1
 93
        1
 72
     4
 94
        3
 73
     0
 74
     0
 95
       17
 96
       13
 40
0.0
 40
0.0
 40
0.0
 40
0.0
 40
1.0
 40
1.0
 40
1.0
 40
2.0
 40
2.0
 40
2.0
 40
3.0
 40
3.0
 40
3.0
 40
4.0
 40
4.0
 40
4.0
 40
4.0
 10
-13.51406521267361
 20
-2.027777777777777
 10
-13.51406521267361
 20
-2.027777777777777
 10
-13.17507595486111
 20
-2.051798502604166
 10
-13.17507595486111
 20
-2.051798502604166
 10
-13.17507595486111
 20
-2.051798502604166
 10
-13.17507595486111
 20
-2.128065321180555
 10
-13.17507595486111
 20
-2.128065321180555
 10
-13.17507595486111
 20
-2.128065321180555
 10
-13.51406521267361
 20
-2.150675455729166
 10
-13.51406521267361
 20
-2.150675455729166
 10
-13.51406521267361
 20
-2.150675455729166
 10
-13.51406521267361
 20
-2.027777777777777
 10
-13.51406521267361
 20
-2.027777777777777
 97
        0
 97
        1
330
D3
 92
        1
 93
        1
 72
     4
 94
        3
 73
     0
 74
     0
 95
       17
 96
       13
 40
0.0
 40
0.0
 40
0.0
 40
0.0
 40
1.0
 40
1.0
 40
1.0
 40
2.0
 40
2.0
 40
2.0
 40
3.0
 40
3.0
 40
3.0
 40
4.0
 40
4.0
 40
4.0
 40
4.0
 10
-13.51406521267361
 20
-1.817328559027777
 10
-13.51406521267361
 20
-1.817328559027777
 10
-13.17507595486111
 20
-1.84133572048611
 10
-13.17507595486111
 20
-1.84133572048611
 10
-13.17507595486111
 20
-1.84133572048611
 10
-13.17507595486111
 20
-1.916205512152777
 10
-13.17507595486111
 20
-1.916205512152777
 10
-13.17507595486111
 20
-1.916205512152777
 10
-13.51406521267361
 20
-1.94021267361111
 10
-13.51406521267361
 20
-1.94021267361111
 10
-13.51406521267361
 20
-1.94021267361111
 10
-13.51406521267361
 20
-1.817328559027777
 10
-13.51406521267361
 20
-1.817328559027777
 97
        0
 97
        1
330
D4
 75
     2
 76
     1
 98
        1
 10
0.0
 20
0.0
450
        0
451
        0
460
0.0
461
0.0
452
        0
462
0.0
453
        0
470

  0
ENDBLK
  5
CD
330
CA
100
AcDbEntity
  8
0
100
AcDbBlockEnd
  0
BLOCK
  5
D8
330
D6
100
AcDbEntity
  8
0
100
AcDbBlockBegin
  2
Block_8
 70
     0
 10
0.0
 20
0.0
 30
0.0
  3
Block_8
  1

  0
INSERT
  5
DB
330
D6
100
AcDbEntity
  8
0
100
AcDbBlockReference
  2
Block_9
 10
0.0
 20
0.0
 30
0.0
  0
ENDBLK
  5
D9
330
D6
100
AcDbEntity
  8
0
100
AcDbBlockEnd
  0
BLOCK
  5
DC
330
DA
100
AcDbEntity
  8
0
100
AcDbBlockBegin
  2
Block_9
 70
     0
 10
0.0
 20
0.0
 30
0.0
  3
Block_9
  1

  0
SPLINE
  5
DE
330
DA
100
AcDbEntity
  8
0
100
AcDbSpline
210
0.0
220
0.0
230
1.0
 70
    11
 71
     3
 72
    47
 73
    43
 74
     0
 42
0.0000000001
 43
0.0000000001
 40
0.0
 40
0.0
 40
0.0
 40
0.0
 40
1.0
 40
1.0
 40
1.0
 40
2.0
 40
2.0
 40
2.0
 40
3.0
 40
3.0
 40
3.0
 40
4.0
 40
4.0
 40
4.0
 40
5.0
 40
5.0
 40
5.0
 40
6.0
 40
6.0
 40
6.0
 40
7.0
 40
7.0
 40
7.0
 40
8.0
 40
8.0
 40
8.0
 40
9.0
 40
9.0
 40
9.0
 40
10.0
 40
10.0
 40
10.0
 40
11.0
 40
11.0
 40
11.0
 40
12.0
 40
12.0
 40
12.0
 40
13.0
 40
13.0
 40
13.0
 40
14.0
 40
14.0
 40
14.0
 40
14.0
 10
-2.482944064670138
 20
21.32817925347222
 30
0.0
 10
-2.482944064670138
 20
21.32817925347222
 30
0.0
 10
-2.482944064670138
 20
21.40445963541667
 30
0.0
 10
-2.482944064670138
 20
21.40445963541667
 30
0.0
 10
-2.482944064670138
 20
21.40445963541667
 30
0.0
 10
-2.385484483506944
 20
21.49909125434028
 30
0.0
 10
-2.385484483506944
 20
21.49909125434028
 30
0.0
 10
-2.151007758246527
 20
21.72226291232639
 30
0.0
 10
-2.045071072048611
 20
21.84091525607639
 30
0.0
 10
-2.043660481770833
 20
21.97934299045139
 30
0.0
 10
-2.043660481770833
 20
22.07256401909722
 30
0.0
 10
-2.088860405815972
 20
22.15873209635416
 30
0.0
 10
-2.225870768229166
 20
22.15873209635416
 30
0.0
 10
-2.309210883246527
 20
22.15873209635416
 30
0.0
 10
-2.378424750434027
 20
22.11634657118056
 30
0.0
 10
-2.420796712239583
 20
22.08104112413194
 30
0.0
 10
-2.420796712239583
 20
22.08104112413194
 30
0.0
 10
-2.460347493489583
 20
22.16861979166667
 30
0.0
 10
-2.460347493489583
 20
22.16861979166667
 30
0.0
 10
-2.396782769097221
 20
22.2222900390625
 30
0.0
 10
-2.306382921006944
 20
22.2618408203125
 30
0.0
 10
-2.200446234809027
 20
22.2618408203125
 30
0.0
 10
-2.002699110243055
 20
22.2618408203125
 30
0.0
 10
-1.919358995225694
 20
22.12623426649305
 30
0.0
 10
-1.919358995225694
 20
21.994873046875
 30
0.0
 10
-1.919358995225694
 20
21.82538519965278
 30
0.0
 10
-2.042249891493055
 20
21.68836805555555
 30
0.0
 10
-2.235758463541666
 20
21.50191243489583
 30
0.0
 10
-2.235758463541666
 20
21.50191243489583
 30
0.0
 10
-2.309210883246527
 20
21.43412272135416
 30
0.0
 10
-2.309210883246527
 20
21.43412272135416
 30
0.0
 10
-2.309210883246527
 20
21.43412272135416
 30
0.0
 10
-2.309210883246527
 20
21.43128797743055
 30
0.0
 10
-2.309210883246527
 20
21.43128797743055
 30
0.0
 10
-2.309210883246527
 20
21.43128797743055
 30
0.0
 10
-1.896762424045138
 20
21.43128797743055
 30
0.0
 10
-1.896762424045138
 20
21.43128797743055
 30
0.0
 10
-1.896762424045138
 20
21.43128797743055
 30
0.0
 10
-1.896762424045138
 20
21.32817925347222
 30
0.0
 10
-1.896762424045138
 20
21.32817925347222
 30
0.0
 10
-1.896762424045138
 20
21.32817925347222
 30
0.0
 10
-2.482944064670138
 20
21.32817925347222
 30
0.0
 10
-2.482944064670138
 20
21.32817925347222
 30
0.0
  0
HATCH
  5
DF
330
DA
100
AcDbEntity
  8
0
 62
    18
420
        0
440
 33554687
100
AcDbHatch
 10
0.0
 20
0.0
 30
0.0
210
0.0
220
0.0
230
1.0
  2
SOLID
 70
     1
 71
     1
 91
        1
 92
        1
 93
        1
 72
     4
 94
        3
 73
     0
 74
     0
 95
       47
 96
       43
 40
0.0
 40
0.0
 40
0.0
 40
0.0
 40
1.0
 40
1.0
 40
1.0
 40
2.0
 40
2.0
 40
2.0
 40
3.0
 40
3.0
 40
3.0
 40
4.0
 40
4.0
 40
4.0
 40
5.0
 40
5.0
 40
5.0
 40
6.0
 40
6.0
 40
6.0
 40
7.0
 40
7.0
 40
7.0
 40
8.0
 40
8.0
 40
8.0
 40
9.0
 40
9.0
 40
9.0
 40
10.0
 40
10.0
 40
10.0
 40
11.0
 40
11.0
 40
11.0
 40
12.0
 40
12.0
 40
12.0
 40
13.0
 40
13.0
 40
13.0
 40
14.0
 40
14.0
 40
14.0
 40
14.0
 10
-2.482944064670138
 20
21.32817925347222
 10
-2.482944064670138
 20
21.32817925347222
 10
-2.482944064670138
 20
21.40445963541667
 10
-2.482944064670138
 20
21.40445963541667
 10
-2.482944064670138
 20
21.40445963541667
 10
-2.385484483506944
 20
21.49909125434028
 10
-2.385484483506944
 20
21.49909125434028
 10
-2.151007758246527
 20
21.72226291232639
 10
-2.045071072048611
 20
21.84091525607639
 10
-2.043660481770833
 20
21.97934299045139
 10
-2.043660481770833
 20
22.07256401909722
 10
-2.088860405815972
 20
22.15873209635416
 10
-2.225870768229166
 20
22.15873209635416
 10
-2.309210883246527
 20
22.15873209635416
 10
-2.378424750434027
 20
22.11634657118056
 10
-2.420796712239583
 20
22.08104112413194
 10
-2.420796712239583
 20
22.08104112413194
 10
-2.460347493489583
 20
22.16861979166667
 10
-2.460347493489583
 20
22.16861979166667
 10
-2.396782769097221
 20
22.2222900390625
 10
-2.306382921006944
 20
22.2618408203125
 10
-2.200446234809027
 20
22.2618408203125
 10
-2.002699110243055
 20
22.2618408203125
 10
-1.919358995225694
 20
22.12623426649305
 10
-1.919358995225694
 20
21.994873046875
 10
-1.919358995225694
 20
21.82538519965278
 10
-2.042249891493055
 20
21.68836805555555
 10
-2.235758463541666
 20
21.50191243489583
 10
-2.235758463541666
 20
21.50191243489583
 10
-2.309210883246527
 20
21.43412272135416
 10
-2.309210883246527
 20
21.43412272135416
 10
-2.309210883246527
 20
21.43412272135416
 10
-2.309210883246527
 20
21.43128797743055
 10
-2.309210883246527
 20
21.43128797743055
 10
-2.309210883246527
 20
21.43128797743055
 10
-1.896762424045138
 20
21.43128797743055
 10
-1.896762424045138
 20
21.43128797743055
 10
-1.896762424045138
 20
21.43128797743055
 10
-1.896762424045138
 20
21.32817925347222
 10
-1.896762424045138
 20
21.32817925347222
 10
-1.896762424045138
 20
21.32817925347222
 10
-2.482944064670138
 20
21.32817925347222
 10
-2.482944064670138
 20
21.32817925347222
 97
        0
 97
        1
330
DE
 75
     2
 76
     1
 98
        1
 10
0.0
 20
0.0
450
        0
451
        0
460
0.0
461
0.0
452
        0
462
0.0
453
        0
470

  0
SPLINE
  5
E0
330
DA
100
AcDbEntity
  8
0
100
AcDbSpline
210
0.0
220
0.0
230
1.0
 70
     9
 71
     3
 72
    20
 73
    16
 74
     0
 42
0.0000000001
 43
0.0000000001
 40
0.0
 40
0.0
 40
0.0
 40
0.0
 40
1.0
 40
1.0
 40
1.0
 40
2.0
 40
2.0
 40
2.0
 40
3.0
 40
3.0
 40
3.0
 40
4.0
 40
4.0
 40
4.0
 40
5.0
 40
5.0
 40
5.0
 40
5.0
 10
-1.641153971354166
 20
21.94402398003472
 30
0.0
 10
-1.641153971354166
 20
21.82961697048611
 30
0.0
 10
-1.571940104166666
 20
21.74910481770833
 30
0.0
 10
-1.464592827690972
 20
21.74910481770833
 30
0.0
 10
-1.38125271267361
 20
21.74910481770833
 30
0.0
 10
-1.316277398003472
 20
21.79006618923611
 30
0.0
 10
-1.283793131510416
 20
21.84514702690972
 30
0.0
 10
-1.276726616753472
 20
21.85645887586805
 30
0.0
 10
-1.272494845920138
 20
21.87057834201389
 30
0.0
 10
-1.272494845920138
 20
21.89035373263889
 30
0.0
 10
-1.272494845920138
 20
22.04714626736111
 30
0.0
 10
-1.330403645833333
 20
22.16720920138889
 30
0.0
 10
-1.46035427517361
 20
22.16720920138889
 30
0.0
 10
-1.566290961371527
 20
22.16720920138889
 30
0.0
 10
-1.641153971354166
 20
22.073974609375
 30
0.0
 10
-1.641153971354166
 20
21.94402398003472
 30
0.0
  0
SPLINE
  5
E1
330
DA
100
AcDbEntity
  8
0
100
AcDbSpline
210
0.0
220
0.0
230
1.0
 70
     9
 71
     3
 72
    41
 73
    37
 74
     0
 42
0.0000000001
 43
0.0000000001
 40
0.0
 40
0.0
 40
0.0
 40
0.0
 40
1.0
 40
1.0
 40
1.0
 40
2.0
 40
2.0
 40
2.0
 40
3.0
 40
3.0
 40
3.0
 40
4.0
 40
4.0
 40
4.0
 40
5.0
 40
5.0
 40
5.0
 40
6.0
 40
6.0
 40
6.0
 40
7.0
 40
7.0
 40
7.0
 40
8.0
 40
8.0
 40
8.0
 40
9.0
 40
9.0
 40
9.0
 40
10.0
 40
10.0
 40
10.0
 40
11.0
 40
11.0
 40
11.0
 40
12.0
 40
12.0
 40
12.0
 40
12.0
 10
-1.686353895399305
 20
21.41575792100694
 30
0.0
 10
-1.659518771701388
 20
21.41292317708333
 30
0.0
 10
-1.628438313802083
 20
21.41575792100694
 30
0.0
 10
-1.586066351996527
 20
21.41998969184028
 30
0.0
 10
-1.514031304253472
 20
21.42987738715278
 30
0.0
 10
-1.44622802734375
 20
21.45954047309027
 30
0.0
 10
-1.393968370225694
 20
21.50897894965277
 30
0.0
 10
-1.333231608072916
 20
21.56405978732639
 30
0.0
 10
-1.289442274305555
 20
21.64458550347222
 30
0.0
 10
-1.272494845920138
 20
21.75333658854166
 30
0.0
 10
-1.272494845920138
 20
21.75333658854166
 30
0.0
 10
-1.276726616753472
 20
21.75333658854166
 30
0.0
 10
-1.276726616753472
 20
21.75333658854166
 30
0.0
 10
-1.327582465277777
 20
21.69118923611111
 30
0.0
 10
-1.40102810329861
 20
21.65445963541666
 30
0.0
 10
-1.492838541666666
 20
21.65445963541666
 30
0.0
 10
-1.658101399739583
 20
21.65445963541666
 30
0.0
 10
-1.7640380859375
 20
21.77876790364583
 30
0.0
 10
-1.7640380859375
 20
21.935546875
 30
0.0
 10
-1.7640380859375
 20
22.10929361979166
 30
0.0
 10
-1.638326009114583
 20
22.2618408203125
 30
0.0
 10
-1.45046657986111
 20
22.2618408203125
 30
0.0
 10
-1.262607150607638
 20
22.2618408203125
 30
0.0
 10
-1.146782769097222
 20
22.10929361979166
 30
0.0
 10
-1.146782769097222
 20
21.87481011284722
 30
0.0
 10
-1.146782769097222
 20
21.67282443576389
 30
0.0
 10
-1.214579264322916
 20
21.53157552083333
 30
0.0
 10
-1.304979112413194
 20
21.44401041666666
 30
0.0
 10
-1.375603569878472
 20
21.37479654947917
 30
0.0
 10
-1.473069932725694
 20
21.33241102430555
 30
0.0
 10
-1.571940104166666
 20
21.32111273871528
 30
0.0
 10
-1.617140028211805
 20
21.31405978732639
 30
0.0
 10
-1.656690809461805
 20
21.31263563368055
 30
0.0
 10
-1.686353895399305
 20
21.31405978732639
 30
0.0
 10
-1.686353895399305
 20
21.31405978732639
 30
0.0
 10
-1.686353895399305
 20
21.41575792100694
 30
0.0
 10
-1.686353895399305
 20
21.41575792100694
 30
0.0
  0
HATCH
  5
E2
330
DA
100
AcDbEntity
  8
0
 62
    18
420
        0
440
 33554687
100
AcDbHatch
 10
0.0
 20
0.0
 30
0.0
210
0.0
220
0.0
230
1.0
  2
SOLID
 70
     1
 71
     1
 91
        2
 92
        1
 93
        1
 72
     4
 94
        3
 73
     0
 74
     0
 95
       20
 96
       16
 40
0.0
 40
0.0
 40
0.0
 40
0.0
 40
1.0
 40
1.0
 40
1.0
 40
2.0
 40
2.0
 40
2.0
 40
3.0
 40
3.0
 40
3.0
 40
4.0
 40
4.0
 40
4.0
 40
5.0
 40
5.0
 40
5.0
 40
5.0
 10
-1.641153971354166
 20
21.94402398003472
 10
-1.641153971354166
 20
21.82961697048611
 10
-1.571940104166666
 20
21.74910481770833
 10
-1.464592827690972
 20
21.74910481770833
 10
-1.38125271267361
 20
21.74910481770833
 10
-1.316277398003472
 20
21.79006618923611
 10
-1.283793131510416
 20
21.84514702690972
 10
-1.276726616753472
 20
21.85645887586805
 10
-1.272494845920138
 20
21.87057834201389
 10
-1.272494845920138
 20
21.89035373263889
 10
-1.272494845920138
 20
22.04714626736111
 10
-1.330403645833333
 20
22.16720920138889
 10
-1.46035427517361
 20
22.16720920138889
 10
-1.566290961371527
 20
22.16720920138889
 10
-1.641153971354166
 20
22.073974609375
 10
-1.641153971354166
 20
21.94402398003472
 97
        0
 97
        1
330
E0
 92
        1
 93
        1
 72
     4
 94
        3
 73
     0
 74
     0
 95
       41
 96
       37
 40
0.0
 40
0.0
 40
0.0
 40
0.0
 40
1.0
 40
1.0
 40
1.0
 40
2.0
 40
2.0
 40
2.0
 40
3.0
 40
3.0
 40
3.0
 40
4.0
 40
4.0
 40
4.0
 40
5.0
 40
5.0
 40
5.0
 40
6.0
 40
6.0
 40
6.0
 40
7.0
 40
7.0
 40
7.0
 40
8.0
 40
8.0
 40
8.0
 40
9.0
 40
9.0
 40
9.0
 40
10.0
 40
10.0
 40
10.0
 40
11.0
 40
11.0
 40
11.0
 40
12.0
 40
12.0
 40
12.0
 40
12.0
 10
-1.686353895399305
 20
21.41575792100694
 10
-1.659518771701388
 20
21.41292317708333
 10
-1.628438313802083
 20
21.41575792100694
 10
-1.586066351996527
 20
21.41998969184028
 10
-1.514031304253472
 20
21.42987738715278
 10
-1.44622802734375
 20
21.45954047309027
 10
-1.393968370225694
 20
21.50897894965277
 10
-1.333231608072916
 20
21.56405978732639
 10
-1.289442274305555
 20
21.64458550347222
 10
-1.272494845920138
 20
21.75333658854166
 10
-1.272494845920138
 20
21.75333658854166
 10
-1.276726616753472
 20
21.75333658854166
 10
-1.276726616753472
 20
21.75333658854166
 10
-1.327582465277777
 20
21.69118923611111
 10
-1.40102810329861
 20
21.65445963541666
 10
-1.492838541666666
 20
21.65445963541666
 10
-1.658101399739583
 20
21.65445963541666
 10
-1.7640380859375
 20
21.77876790364583
 10
-1.7640380859375
 20
21.935546875
 10
-1.7640380859375
 20
22.10929361979166
 10
-1.638326009114583
 20
22.2618408203125
 10
-1.45046657986111
 20
22.2618408203125
 10
-1.262607150607638
 20
22.2618408203125
 10
-1.146782769097222
 20
22.10929361979166
 10
-1.146782769097222
 20
21.87481011284722
 10
-1.146782769097222
 20
21.67282443576389
 10
-1.214579264322916
 20
21.53157552083333
 10
-1.304979112413194
 20
21.44401041666666
 10
-1.375603569878472
 20
21.37479654947917
 10
-1.473069932725694
 20
21.33241102430555
 10
-1.571940104166666
 20
21.32111273871528
 10
-1.617140028211805
 20
21.31405978732639
 10
-1.656690809461805
 20
21.31263563368055
 10
-1.686353895399305
 20
21.31405978732639
 10
-1.686353895399305
 20
21.31405978732639
 10
-1.686353895399305
 20
21.41575792100694
 10
-1.686353895399305
 20
21.41575792100694
 97
        0
 97
        1
330
E1
 75
     2
 76
     1
 98
        1
 10
0.0
 20
0.0
450
        0
451
        0
460
0.0
461
0.0
452
        0
462
0.0
453
        0
470

  0
SPLINE
  5
E3
330
DA
100
AcDbEntity
  8
0
100
AcDbSpline
210
0.0
220
0.0
230
1.0
 70
     9
 71
     3
 72
    17
 73
    13
 74
     0
 42
0.0000000001
 43
0.0000000001
 40
0.0
 40
0.0
 40
0.0
 40
0.0
 40
1.0
 40
1.0
 40
1.0
 40
2.0
 40
2.0
 40
2.0
 40
3.0
 40
3.0
 40
3.0
 40
4.0
 40
4.0
 40
4.0
 40
4.0
 10
-1.023946126302083
 20
21.40162489149306
 30
0.0
 10
-1.023946126302083
 20
21.45389811197917
 30
0.0
 10
-0.9886338975694444
 20
21.49061414930555
 30
0.0
 10
-0.9391954210069444
 20
21.49061414930555
 30
0.0
 10
-0.8897637261284721
 20
21.49061414930555
 30
0.0
 10
-0.855862087673611
 20
21.45389811197917
 30
0.0
 10
-0.855862087673611
 20
21.40162489149306
 30
0.0
 10
-0.855862087673611
 20
21.35077582465278
 30
0.0
 10
-0.8883463541666666
 20
21.31263563368055
 30
0.0
 10
-0.94061279296875
 20
21.31263563368055
 30
0.0
 10
-0.99005126953125
 20
21.31263563368055
 30
0.0
 10
-1.023946126302083
 20
21.35077582465278
 30
0.0
 10
-1.023946126302083
 20
21.40162489149306
 30
0.0
  0
HATCH
  5
E4
330
DA
100
AcDbEntity
  8
0
 62
    18
420
        0
440
 33554687
100
AcDbHatch
 10
0.0
 20
0.0
 30
0.0
210
0.0
220
0.0
230
1.0
  2
SOLID
 70
     1
 71
     1
 91
        1
 92
        1
 93
        1
 72
     4
 94
        3
 73
     0
 74
     0
 95
       17
 96
       13
 40
0.0
 40
0.0
 40
0.0
 40
0.0
 40
1.0
 40
1.0
 40
1.0
 40
2.0
 40
2.0
 40
2.0
 40
3.0
 40
3.0
 40
3.0
 40
4.0
 40
4.0
 40
4.0
 40
4.0
 10
-1.023946126302083
 20
21.40162489149306
 10
-1.023946126302083
 20
21.45389811197917
 10
-0.9886338975694444
 20
21.49061414930555
 10
-0.9391954210069444
 20
21.49061414930555
 10
-0.8897637261284721
 20
21.49061414930555
 10
-0.855862087673611
 20
21.45389811197917
 10
-0.855862087673611
 20
21.40162489149306
 10
-0.855862087673611
 20
21.35077582465278
 10
-0.8883463541666666
 20
21.31263563368055
 10
-0.94061279296875
 20
21.31263563368055
 10
-0.99005126953125
 20
21.31263563368055
 10
-1.023946126302083
 20
21.35077582465278
 10
-1.023946126302083
 20
21.40162489149306
 97
        0
 97
        1
330
E3
 75
     2
 76
     1
 98
        1
 10
0.0
 20
0.0
450
        0
451
        0
460
0.0
461
0.0
452
        0
462
0.0
453
        0
470

  0
SPLINE
  5
E5
330
DA
100
AcDbEntity
  8
0
100
AcDbSpline
210
0.0
220
0.0
230
1.0
 70
    11
 71
     3
 72
    29
 73
    25
 74
     0
 42
0.0000000001
 43
0.0000000001
 40
0.0
 40
0.0
 40
0.0
 40
0.0
 40
1.0
 40
1.0
 40
1.0
 40
2.0
 40
2.0
 40
2.0
 40
3.0
 40
3.0
 40
3.0
 40
4.0
 40
4.0
 40
4.0
 40
5.0
 40
5.0
 40
5.0
 40
6.0
 40
6.0
 40
6.0
 40
7.0
 40
7.0
 40
7.0
 40
8.0
 40
8.0
 40
8.0
 40
8.0
 10
-0.1454128689236111
 20
22.24629720052083
 30
0.0
 10
-0.1454128689236111
 20
22.24629720052083
 30
0.0
 10
-0.1454128689236111
 20
22.16437445746528
 30
0.0
 10
-0.1454128689236111
 20
22.16437445746528
 30
0.0
 10
-0.1454128689236111
 20
22.16437445746528
 30
0.0
 10
-0.5451456705729166
 20
21.32817925347222
 30
0.0
 10
-0.5451456705729166
 20
21.32817925347222
 30
0.0
 10
-0.5451456705729166
 20
21.32817925347222
 30
0.0
 10
-0.6736857096354166
 20
21.32817925347222
 30
0.0
 10
-0.6736857096354166
 20
21.32817925347222
 30
0.0
 10
-0.6736857096354166
 20
21.32817925347222
 30
0.0
 10
-0.2753634982638889
 20
22.14036729600694
 30
0.0
 10
-0.2753634982638889
 20
22.14036729600694
 30
0.0
 10
-0.2753634982638889
 20
22.14036729600694
 30
0.0
 10
-0.2753634982638889
 20
22.1431884765625
 30
0.0
 10
-0.2753634982638889
 20
22.1431884765625
 30
0.0
 10
-0.2753634982638889
 20
22.1431884765625
 30
0.0
 10
-0.7245347764756945
 20
22.1431884765625
 30
0.0
 10
-0.7245347764756945
 20
22.1431884765625
 30
0.0
 10
-0.7245347764756945
 20
22.1431884765625
 30
0.0
 10
-0.7245347764756945
 20
22.24629720052083
 30
0.0
 10
-0.7245347764756945
 20
22.24629720052083
 30
0.0
 10
-0.7245347764756945
 20
22.24629720052083
 30
0.0
 10
-0.1454128689236111
 20
22.24629720052083
 30
0.0
 10
-0.1454128689236111
 20
22.24629720052083
 30
0.0
  0
HATCH
  5
E6
330
DA
100
AcDbEntity
  8
0
 62
    18
420
        0
440
 33554687
100
AcDbHatch
 10
0.0
 20
0.0
 30
0.0
210
0.0
220
0.0
230
1.0
  2
SOLID
 70
     1
 71
     1
 91
        1
 92
        1
 93
        1
 72
     4
 94
        3
 73
     0
 74
     0
 95
       29
 96
       25
 40
0.0
 40
0.0
 40
0.0
 40
0.0
 40
1.0
 40
1.0
 40
1.0
 40
2.0
 40
2.0
 40
2.0
 40
3.0
 40
3.0
 40
3.0
 40
4.0
 40
4.0
 40
4.0
 40
5.0
 40
5.0
 40
5.0
 40
6.0
 40
6.0
 40
6.0
 40
7.0
 40
7.0
 40
7.0
 40
8.0
 40
8.0
 40
8.0
 40
8.0
 10
-0.1454128689236111
 20
22.24629720052083
 10
-0.1454128689236111
 20
22.24629720052083
 10
-0.1454128689236111
 20
22.16437445746528
 10
-0.1454128689236111
 20
22.16437445746528
 10
-0.1454128689236111
 20
22.16437445746528
 10
-0.5451456705729166
 20
21.32817925347222
 10
-0.5451456705729166
 20
21.32817925347222
 10
-0.5451456705729166
 20
21.32817925347222
 10
-0.6736857096354166
 20
21.32817925347222
 10
-0.6736857096354166
 20
21.32817925347222
 10
-0.6736857096354166
 20
21.32817925347222
 10
-0.2753634982638889
 20
22.14036729600694
 10
-0.2753634982638889
 20
22.14036729600694
 10
-0.2753634982638889
 20
22.14036729600694
 10
-0.2753634982638889
 20
22.1431884765625
 10
-0.2753634982638889
 20
22.1431884765625
 10
-0.2753634982638889
 20
22.1431884765625
 10
-0.7245347764756945
 20
22.1431884765625
 10
-0.7245347764756945
 20
22.1431884765625
 10
-0.7245347764756945
 20
22.1431884765625
 10
-0.7245347764756945
 20
22.24629720052083
 10
-0.7245347764756945
 20
22.24629720052083
 10
-0.7245347764756945
 20
22.24629720052083
 10
-0.1454128689236111
 20
22.24629720052083
 10
-0.1454128689236111
 20
22.24629720052083
 97
        0
 97
        1
330
E5
 75
     2
 76
     1
 98
        1
 10
0.0
 20
0.0
450
        0
451
        0
460
0.0
461
0.0
452
        0
462
0.0
453
        0
470

  0
SPLINE
  5
E7
330
DA
100
AcDbEntity
  8
0
100
AcDbSpline
210
0.0
220
0.0
230
1.0
 70
    11
 71
     3
 72
    50
 73
    46
 74
     0
 42
0.0000000001
 43
0.0000000001
 40
0.0
 40
0.0
 40
0.0
 40
0.0
 40
1.0
 40
1.0
 40
1.0
 40
2.0
 40
2.0
 40
2.0
 40
3.0
 40
3.0
 40
3.0
 40
4.0
 40
4.0
 40
4.0
 40
5.0
 40
5.0
 40
5.0
 40
6.0
 40
6.0
 40
6.0
 40
7.0
 40
7.0
 40
7.0
 40
8.0
 40
8.0
 40
8.0
 40
9.0
 40
9.0
 40
9.0
 40
10.0
 40
10.0
 40
10.0
 40
11.0
 40
11.0
 40
11.0
 40
12.0
 40
12.0
 40
12.0
 40
13.0
 40
13.0
 40
13.0
 40
14.0
 40
14.0
 40
14.0
 40
15.0
 40
15.0
 40
15.0
 40
15.0
 10
0.5311211480034723
 20
22.14177788628472
 30
0.0
 10
0.5311211480034723
 20
22.14177788628472
 30
0.0
 10
0.1808200412326389
 20
22.14177788628472
 30
0.0
 10
0.1808200412326389
 20
22.14177788628472
 30
0.0
 10
0.1808200412326389
 20
22.14177788628472
 30
0.0
 10
0.1455078125
 20
21.90589735243055
 30
0.0
 10
0.1455078125
 20
21.90589735243055
 30
0.0
 10
0.1666937934027778
 20
21.90871853298611
 30
0.0
 10
0.1864691840277778
 20
21.91153971354166
 30
0.0
 10
0.2203708224826389
 20
21.91153971354166
 30
0.0
 10
0.2909952799479166
 20
21.91153971354166
 30
0.0
 10
0.3616197374131944
 20
21.89600965711806
 30
0.0
 10
0.4181179470486111
 20
21.86210123697916
 30
0.0
 10
0.4901597764756945
 20
21.82113986545139
 30
0.0
 10
0.5494791666666666
 20
21.74203830295139
 30
0.0
 10
0.5494791666666666
 20
21.626220703125
 30
0.0
 10
0.5494791666666666
 20
21.44683159722222
 30
0.0
 10
0.4068196614583333
 20
21.31263563368055
 30
0.0
 10
0.2076551649305555
 20
21.31263563368055
 30
0.0
 10
0.1073676215277778
 20
21.31263563368055
 30
0.0
 10
0.0226236979166667
 20
21.34088812934027
 30
0.0
 10
-0.0211656358506945
 20
21.369140625
 30
0.0
 10
-0.0211656358506945
 20
21.369140625
 30
0.0
 10
0.0099080403645833
 20
21.46378580729166
 30
0.0
 10
0.0099080403645833
 20
21.46378580729166
 30
0.0
 10
0.0480482313368056
 20
21.44117567274305
 30
0.0
 10
0.1229112413194444
 20
21.41292317708333
 30
0.0
 10
0.2062445746527778
 20
21.41292317708333
 30
0.0
 10
0.3234795464409722
 20
21.41292317708333
 30
0.0
 10
0.42376708984375
 20
21.48920355902777
 30
0.0
 10
0.42376708984375
 20
21.61208767361111
 30
0.0
 10
0.4223564995659723
 20
21.73074001736111
 30
0.0
 10
0.3432549370659722
 20
21.81549750434028
 30
0.0
 10
0.1596340603298611
 20
21.81549750434028
 30
0.0
 10
0.1073676215277778
 20
21.81549750434028
 30
0.0
 10
0.06640625
 20
21.80984157986111
 30
0.0
 10
0.0325113932291667
 20
21.80560980902777
 30
0.0
 10
0.0325113932291667
 20
21.80560980902777
 30
0.0
 10
0.0918307834201389
 20
22.24629720052083
 30
0.0
 10
0.0918307834201389
 20
22.24629720052083
 30
0.0
 10
0.0918307834201389
 20
22.24629720052083
 30
0.0
 10
0.5311211480034723
 20
22.24629720052083
 30
0.0
 10
0.5311211480034723
 20
22.24629720052083
 30
0.0
 10
0.5311211480034723
 20
22.24629720052083
 30
0.0
 10
0.5311211480034723
 20
22.14177788628472
 30
0.0
 10
0.5311211480034723
 20
22.14177788628472
 30
0.0
  0
HATCH
  5
E8
330
DA
100
AcDbEntity
  8
0
 62
    18
420
        0
440
 33554687
100
AcDbHatch
 10
0.0
 20
0.0
 30
0.0
210
0.0
220
0.0
230
1.0
  2
SOLID
 70
     1
 71
     1
 91
        1
 92
        1
 93
        1
 72
     4
 94
        3
 73
     0
 74
     0
 95
       50
 96
       46
 40
0.0
 40
0.0
 40
0.0
 40
0.0
 40
1.0
 40
1.0
 40
1.0
 40
2.0
 40
2.0
 40
2.0
 40
3.0
 40
3.0
 40
3.0
 40
4.0
 40
4.0
 40
4.0
 40
5.0
 40
5.0
 40
5.0
 40
6.0
 40
6.0
 40
6.0
 40
7.0
 40
7.0
 40
7.0
 40
8.0
 40
8.0
 40
8.0
 40
9.0
 40
9.0
 40
9.0
 40
10.0
 40
10.0
 40
10.0
 40
11.0
 40
11.0
 40
11.0
 40
12.0
 40
12.0
 40
12.0
 40
13.0
 40
13.0
 40
13.0
 40
14.0
 40
14.0
 40
14.0
 40
15.0
 40
15.0
 40
15.0
 40
15.0
 10
0.5311211480034723
 20
22.14177788628472
 10
0.5311211480034723
 20
22.14177788628472
 10
0.1808200412326389
 20
22.14177788628472
 10
0.1808200412326389
 20
22.14177788628472
 10
0.1808200412326389
 20
22.14177788628472
 10
0.1455078125
 20
21.90589735243055
 10
0.1455078125
 20
21.90589735243055
 10
0.1666937934027778
 20
21.90871853298611
 10
0.1864691840277778
 20
21.91153971354166
 10
0.2203708224826389
 20
21.91153971354166
 10
0.2909952799479166
 20
21.91153971354166
 10
0.3616197374131944
 20
21.89600965711806
 10
0.4181179470486111
 20
21.86210123697916
 10
0.4901597764756945
 20
21.82113986545139
 10
0.5494791666666666
 20
21.74203830295139
 10
0.5494791666666666
 20
21.626220703125
 10
0.5494791666666666
 20
21.44683159722222
 10
0.4068196614583333
 20
21.31263563368055
 10
0.2076551649305555
 20
21.31263563368055
 10
0.1073676215277778
 20
21.31263563368055
 10
0.0226236979166667
 20
21.34088812934027
 10
-0.0211656358506945
 20
21.369140625
 10
-0.0211656358506945
 20
21.369140625
 10
0.0099080403645833
 20
21.46378580729166
 10
0.0099080403645833
 20
21.46378580729166
 10
0.0480482313368056
 20
21.44117567274305
 10
0.1229112413194444
 20
21.41292317708333
 10
0.2062445746527778
 20
21.41292317708333
 10
0.3234795464409722
 20
21.41292317708333
 10
0.42376708984375
 20
21.48920355902777
 10
0.42376708984375
 20
21.61208767361111
 10
0.4223564995659723
 20
21.73074001736111
 10
0.3432549370659722
 20
21.81549750434028
 10
0.1596340603298611
 20
21.81549750434028
 10
0.1073676215277778
 20
21.81549750434028
 10
0.06640625
 20
21.80984157986111
 10
0.0325113932291667
 20
21.80560980902777
 10
0.0325113932291667
 20
21.80560980902777
 10
0.0918307834201389
 20
22.24629720052083
 10
0.0918307834201389
 20
22.24629720052083
 10
0.0918307834201389
 20
22.24629720052083
 10
0.5311211480034723
 20
22.24629720052083
 10
0.5311211480034723
 20
22.24629720052083
 10
0.5311211480034723
 20
22.24629720052083
 10
0.5311211480034723
 20
22.14177788628472
 10
0.5311211480034723
 20
22.14177788628472
 97
        0
 97
        1
330
E7
 75
     2
 76
     1
 98
        1
 10
0.0
 20
0.0
450
        0
451
        0
460
0.0
461
0.0
452
        0
462
0.0
453
        0
470

  0
SPLINE
  5
E9
330
DA
100
AcDbEntity
  8
0
100
AcDbSpline
210
0.0
220
0.0
230
1.0
 70
    11
 71
     3
 72
    17
 73
    13
 74
     0
 42
0.0000000001
 43
0.0000000001
 40
0.0
 40
0.0
 40
0.0
 40
0.0
 40
1.0
 40
1.0
 40
1.0
 40
2.0
 40
2.0
 40
2.0
 40
3.0
 40
3.0
 40
3.0
 40
4.0
 40
4.0
 40
4.0
 40
4.0
 10
1.049452039930555
 20
22.29573567708333
 30
0.0
 10
1.049452039930555
 20
22.29573567708333
 30
0.0
 10
1.025438096788194
 20
21.95674641927083
 30
0.0
 10
1.025438096788194
 20
21.95674641927083
 30
0.0
 10
1.025438096788194
 20
21.95674641927083
 30
0.0
 10
0.9505750868055555
 20
21.95674641927083
 30
0.0
 10
0.9505750868055555
 20
21.95674641927083
 30
0.0
 10
0.9505750868055555
 20
21.95674641927083
 30
0.0
 10
0.9265611436631944
 20
22.29573567708333
 30
0.0
 10
0.9265611436631944
 20
22.29573567708333
 30
0.0
 10
0.9265611436631944
 20
22.29573567708333
 30
0.0
 10
1.049452039930555
 20
22.29573567708333
 30
0.0
 10
1.049452039930555
 20
22.29573567708333
 30
0.0
  0
SPLINE
  5
EA
330
DA
100
AcDbEntity
  8
0
100
AcDbSpline
210
0.0
220
0.0
230
1.0
 70
    11
 71
     3
 72
    17
 73
    13
 74
     0
 42
0.0000000001
 43
0.0000000001
 40
0.0
 40
0.0
 40
0.0
 40
0.0
 40
1.0
 40
1.0
 40
1.0
 40
2.0
 40
2.0
 40
2.0
 40
3.0
 40
3.0
 40
3.0
 40
4.0
 40
4.0
 40
4.0
 40
4.0
 10
0.8389892578125
 20
22.29573567708333
 30
0.0
 10
0.8389892578125
 20
22.29573567708333
 30
0.0
 10
0.8149753146701389
 20
21.95674641927083
 30
0.0
 10
0.8149753146701389
 20
21.95674641927083
 30
0.0
 10
0.8149753146701389
 20
21.95674641927083
 30
0.0
 10
0.7387017144097223
 20
21.95674641927083
 30
0.0
 10
0.7387017144097223
 20
21.95674641927083
 30
0.0
 10
0.7387017144097223
 20
21.95674641927083
 30
0.0
 10
0.7160983615451389
 20
22.29573567708333
 30
0.0
 10
0.7160983615451389
 20
22.29573567708333
 30
0.0
 10
0.7160983615451389
 20
22.29573567708333
 30
0.0
 10
0.8389892578125
 20
22.29573567708333
 30
0.0
 10
0.8389892578125
 20
22.29573567708333
 30
0.0
  0
HATCH
  5
EB
330
DA
100
AcDbEntity
  8
0
 62
    18
420
        0
440
 33554687
100
AcDbHatch
 10
0.0
 20
0.0
 30
0.0
210
0.0
220
0.0
230
1.0
  2
SOLID
 70
     1
 71
     1
 91
        2
 92
        1
 93
        1
 72
     4
 94
        3
 73
     0
 74
     0
 95
       17
 96
       13
 40
0.0
 40
0.0
 40
0.0
 40
0.0
 40
1.0
 40
1.0
 40
1.0
 40
2.0
 40
2.0
 40
2.0
 40
3.0
 40
3.0
 40
3.0
 40
4.0
 40
4.0
 40
4.0
 40
4.0
 10
1.049452039930555
 20
22.29573567708333
 10
1.049452039930555
 20
22.29573567708333
 10
1.025438096788194
 20
21.95674641927083
 10
1.025438096788194
 20
21.95674641927083
 10
1.025438096788194
 20
21.95674641927083
 10
0.9505750868055555
 20
21.95674641927083
 10
0.9505750868055555
 20
21.95674641927083
 10
0.9505750868055555
 20
21.95674641927083
 10
0.9265611436631944
 20
22.29573567708333
 10
0.9265611436631944
 20
22.29573567708333
 10
0.9265611436631944
 20
22.29573567708333
 10
1.049452039930555
 20
22.29573567708333
 10
1.049452039930555
 20
22.29573567708333
 97
        0
 97
        1
330
E9
 92
        1
 93
        1
 72
     4
 94
        3
 73
     0
 74
     0
 95
       17
 96
       13
 40
0.0
 40
0.0
 40
0.0
 40
0.0
 40
1.0
 40
1.0
 40
1.0
 40
2.0
 40
2.0
 40
2.0
 40
3.0
 40
3.0
 40
3.0
 40
4.0
 40
4.0
 40
4.0
 40
4.0
 10
0.8389892578125
 20
22.29573567708333
 10
0.8389892578125
 20
22.29573567708333
 10
0.8149753146701389
 20
21.95674641927083
 10
0.8149753146701389
 20
21.95674641927083
 10
0.8149753146701389
 20
21.95674641927083
 10
0.7387017144097223
 20
21.95674641927083
 10
0.7387017144097223
 20
21.95674641927083
 10
0.7387017144097223
 20
21.95674641927083
 10
0.7160983615451389
 20
22.29573567708333
 10
0.7160983615451389
 20
22.29573567708333
 10
0.7160983615451389
 20
22.29573567708333
 10
0.8389892578125
 20
22.29573567708333
 10
0.8389892578125
 20
22.29573567708333
 97
        0
 97
        1
330
EA
 75
     2
 76
     1
 98
        1
 10
0.0
 20
0.0
450
        0
451
        0
460
0.0
461
0.0
452
        0
462
0.0
453
        0
470

  0
SPLINE
  5
EC
330
DA
100
AcDbEntity
  8
0
100
AcDbSpline
210
0.0
220
0.0
230
1.0
 70
    11
 71
     3
 72
    59
 73
    55
 74
     0
 42
0.0000000001
 43
0.0000000001
 40
0.0
 40
0.0
 40
0.0
 40
0.0
 40
1.0
 40
1.0
 40
1.0
 40
2.0
 40
2.0
 40
2.0
 40
3.0
 40
3.0
 40
3.0
 40
4.0
 40
4.0
 40
4.0
 40
5.0
 40
5.0
 40
5.0
 40
6.0
 40
6.0
 40
6.0
 40
7.0
 40
7.0
 40
7.0
 40
8.0
 40
8.0
 40
8.0
 40
9.0
 40
9.0
 40
9.0
 40
10.0
 40
10.0
 40
10.0
 40
11.0
 40
11.0
 40
11.0
 40
12.0
 40
12.0
 40
12.0
 40
13.0
 40
13.0
 40
13.0
 40
14.0
 40
14.0
 40
14.0
 40
15.0
 40
15.0
 40
15.0
 40
16.0
 40
16.0
 40
16.0
 40
17.0
 40
17.0
 40
17.0
 40
18.0
 40
18.0
 40
18.0
 40
18.0
 10
1.580485026041666
 20
22.01182725694444
 30
0.0
 10
1.580485026041666
 20
22.01182725694444
 30
0.0
 10
1.67794460720486
 20
21.86492241753472
 30
0.0
 10
1.67794460720486
 20
21.86492241753472
 30
0.0
 10
1.703375922309027
 20
21.82679578993055
 30
0.0
 10
1.724555121527777
 20
21.79147677951389
 30
0.0
 10
1.747165256076388
 20
21.75333658854166
 30
0.0
 10
1.747165256076388
 20
21.75333658854166
 30
0.0
 10
1.751397026909722
 20
21.75333658854166
 30
0.0
 10
1.751397026909722
 20
21.75333658854166
 30
0.0
 10
1.773993598090277
 20
21.79429796006944
 30
0.0
 10
1.796603732638888
 20
21.82961697048611
 30
0.0
 10
1.819200303819444
 20
21.86634657118055
 30
0.0
 10
1.819200303819444
 20
21.86634657118055
 30
0.0
 10
1.915242513020833
 20
22.01182725694444
 30
0.0
 10
1.915242513020833
 20
22.01182725694444
 30
0.0
 10
1.915242513020833
 20
22.01182725694444
 30
0.0
 10
2.0494384765625
 20
22.01182725694444
 30
0.0
 10
2.0494384765625
 20
22.01182725694444
 30
0.0
 10
2.0494384765625
 20
22.01182725694444
 30
0.0
 10
1.816379123263888
 20
21.68130154079861
 30
0.0
 10
1.816379123263888
 20
21.68130154079861
 30
0.0
 10
1.816379123263888
 20
21.68130154079861
 30
0.0
 10
2.056491427951388
 20
21.32817925347222
 30
0.0
 10
2.056491427951388
 20
21.32817925347222
 30
0.0
 10
2.056491427951388
 20
21.32817925347222
 30
0.0
 10
1.915242513020833
 20
21.32817925347222
 30
0.0
 10
1.915242513020833
 20
21.32817925347222
 30
0.0
 10
1.915242513020833
 20
21.32817925347222
 30
0.0
 10
1.814954969618055
 20
21.48213704427083
 30
0.0
 10
1.814954969618055
 20
21.48213704427083
 30
0.0
 10
1.788126627604166
 20
21.52168782552083
 30
0.0
 10
1.765516493055555
 20
21.55982801649305
 30
0.0
 10
1.741509331597222
 20
21.60078938802083
 30
0.0
 10
1.741509331597222
 20
21.60078938802083
 30
0.0
 10
1.738688151041666
 20
21.60078938802083
 30
0.0
 10
1.738688151041666
 20
21.60078938802083
 30
0.0
 10
1.71609157986111
 20
21.55982801649305
 30
0.0
 10
1.692070855034722
 20
21.52309841579861
 30
0.0
 10
1.666646321614583
 20
21.48213704427083
 30
0.0
 10
1.666646321614583
 20
21.48213704427083
 30
0.0
 10
1.56777615017361
 20
21.32817925347222
 30
0.0
 10
1.56777615017361
 20
21.32817925347222
 30
0.0
 10
1.56777615017361
 20
21.32817925347222
 30
0.0
 10
1.430759006076388
 20
21.32817925347222
 30
0.0
 10
1.430759006076388
 20
21.32817925347222
 30
0.0
 10
1.430759006076388
 20
21.32817925347222
 30
0.0
 10
1.673712836371527
 20
21.67706976996528
 30
0.0
 10
1.673712836371527
 20
21.67706976996528
 30
0.0
 10
1.673712836371527
 20
21.67706976996528
 30
0.0
 10
1.442057291666666
 20
22.01182725694444
 30
0.0
 10
1.442057291666666
 20
22.01182725694444
 30
0.0
 10
1.442057291666666
 20
22.01182725694444
 30
0.0
 10
1.580485026041666
 20
22.01182725694444
 30
0.0
 10
1.580485026041666
 20
22.01182725694444
 30
0.0
  0
HATCH
  5
ED
330
DA
100
AcDbEntity
  8
0
 62
    18
420
        0
440
 33554687
100
AcDbHatch
 10
0.0
 20
0.0
 30
0.0
210
0.0
220
0.0
230
1.0
  2
SOLID
 70
     1
 71
     1
 91
        1
 92
        1
 93
        1
 72
     4
 94
        3
 73
     0
 74
     0
 95
       59
 96
       55
 40
0.0
 40
0.0
 40
0.0
 40
0.0
 40
1.0
 40
1.0
 40
1.0
 40
2.0
 40
2.0
 40
2.0
 40
3.0
 40
3.0
 40
3.0
 40
4.0
 40
4.0
 40
4.0
 40
5.0
 40
5.0
 40
5.0
 40
6.0
 40
6.0
 40
6.0
 40
7.0
 40
7.0
 40
7.0
 40
8.0
 40
8.0
 40
8.0
 40
9.0
 40
9.0
 40
9.0
 40
10.0
 40
10.0
 40
10.0
 40
11.0
 40
11.0
 40
11.0
 40
12.0
 40
12.0
 40
12.0
 40
13.0
 40
13.0
 40
13.0
 40
14.0
 40
14.0
 40
14.0
 40
15.0
 40
15.0
 40
15.0
 40
16.0
 40
16.0
 40
16.0
 40
17.0
 40
17.0
 40
17.0
 40
18.0
 40
18.0
 40
18.0
 40
18.0
 10
1.580485026041666
 20
22.01182725694444
 10
1.580485026041666
 20
22.01182725694444
 10
1.67794460720486
 20
21.86492241753472
 10
1.67794460720486
 20
21.86492241753472
 10
1.703375922309027
 20
21.82679578993055
 10
1.724555121527777
 20
21.79147677951389
 10
1.747165256076388
 20
21.75333658854166
 10
1.747165256076388
 20
21.75333658854166
 10
1.751397026909722
 20
21.75333658854166
 10
1.751397026909722
 20
21.75333658854166
 10
1.773993598090277
 20
21.79429796006944
 10
1.796603732638888
 20
21.82961697048611
 10
1.819200303819444
 20
21.86634657118055
 10
1.819200303819444
 20
21.86634657118055
 10
1.915242513020833
 20
22.01182725694444
 10
1.915242513020833
 20
22.01182725694444
 10
1.915242513020833
 20
22.01182725694444
 10
2.0494384765625
 20
22.01182725694444
 10
2.0494384765625
 20
22.01182725694444
 10
2.0494384765625
 20
22.01182725694444
 10
1.816379123263888
 20
21.68130154079861
 10
1.816379123263888
 20
21.68130154079861
 10
1.816379123263888
 20
21.68130154079861
 10
2.056491427951388
 20
21.32817925347222
 10
2.056491427951388
 20
21.32817925347222
 10
2.056491427951388
 20
21.32817925347222
 10
1.915242513020833
 20
21.32817925347222
 10
1.915242513020833
 20
21.32817925347222
 10
1.915242513020833
 20
21.32817925347222
 10
1.814954969618055
 20
21.48213704427083
 10
1.814954969618055
 20
21.48213704427083
 10
1.788126627604166
 20
21.52168782552083
 10
1.765516493055555
 20
21.55982801649305
 10
1.741509331597222
 20
21.60078938802083
 10
1.741509331597222
 20
21.60078938802083
 10
1.738688151041666
 20
21.60078938802083
 10
1.738688151041666
 20
21.60078938802083
 10
1.71609157986111
 20
21.55982801649305
 10
1.692070855034722
 20
21.52309841579861
 10
1.666646321614583
 20
21.48213704427083
 10
1.666646321614583
 20
21.48213704427083
 10
1.56777615017361
 20
21.32817925347222
 10
1.56777615017361
 20
21.32817925347222
 10
1.56777615017361
 20
21.32817925347222
 10
1.430759006076388
 20
21.32817925347222
 10
1.430759006076388
 20
21.32817925347222
 10
1.430759006076388
 20
21.32817925347222
 10
1.673712836371527
 20
21.67706976996528
 10
1.673712836371527
 20
21.67706976996528
 10
1.673712836371527
 20
21.67706976996528
 10
1.442057291666666
 20
22.01182725694444
 10
1.442057291666666
 20
22.01182725694444
 10
1.442057291666666
 20
22.01182725694444
 10
1.580485026041666
 20
22.01182725694444
 10
1.580485026041666
 20
22.01182725694444
 97
        0
 97
        1
330
EC
 75
     2
 76
     1
 98
        1
 10
0.0
 20
0.0
450
        0
451
        0
460
0.0
461
0.0
452
        0
462
0.0
453
        0
470

  0
SPLINE
  5
EE
330
DA
100
AcDbEntity
  8
0
100
AcDbSpline
210
0.0
220
0.0
230
1.0
 70
    11
 71
     3
 72
    29
 73
    25
 74
     0
 42
0.0000000001
 43
0.0000000001
 40
0.0
 40
0.0
 40
0.0
 40
0.0
 40
1.0
 40
1.0
 40
1.0
 40
2.0
 40
2.0
 40
2.0
 40
3.0
 40
3.0
 40
3.0
 40
4.0
 40
4.0
 40
4.0
 40
5.0
 40
5.0
 40
5.0
 40
6.0
 40
6.0
 40
6.0
 40
7.0
 40
7.0
 40
7.0
 40
8.0
 40
8.0
 40
8.0
 40
8.0
 10
2.7061767578125
 20
22.13047960069444
 30
0.0
 10
2.7061767578125
 20
22.13047960069444
 30
0.0
 10
2.703355577256944
 20
22.13047960069444
 30
0.0
 10
2.703355577256944
 20
22.13047960069444
 30
0.0
 10
2.703355577256944
 20
22.13047960069444
 30
0.0
 10
2.543741861979166
 20
22.0443115234375
 30
0.0
 10
2.543741861979166
 20
22.0443115234375
 30
0.0
 10
2.543741861979166
 20
22.0443115234375
 30
0.0
 10
2.519734700520833
 20
22.13895670572917
 30
0.0
 10
2.519734700520833
 20
22.13895670572917
 30
0.0
 10
2.519734700520833
 20
22.13895670572917
 30
0.0
 10
2.720309787326388
 20
22.24629720052083
 30
0.0
 10
2.720309787326388
 20
22.24629720052083
 30
0.0
 10
2.720309787326388
 20
22.24629720052083
 30
0.0
 10
2.826239691840277
 20
22.24629720052083
 30
0.0
 10
2.826239691840277
 20
22.24629720052083
 30
0.0
 10
2.826239691840277
 20
22.24629720052083
 30
0.0
 10
2.826239691840277
 20
21.32817925347222
 30
0.0
 10
2.826239691840277
 20
21.32817925347222
 30
0.0
 10
2.826239691840277
 20
21.32817925347222
 30
0.0
 10
2.7061767578125
 20
21.32817925347222
 30
0.0
 10
2.7061767578125
 20
21.32817925347222
 30
0.0
 10
2.7061767578125
 20
21.32817925347222
 30
0.0
 10
2.7061767578125
 20
22.13047960069444
 30
0.0
 10
2.7061767578125
 20
22.13047960069444
 30
0.0
  0
HATCH
  5
EF
330
DA
100
AcDbEntity
  8
0
 62
    18
420
        0
440
 33554687
100
AcDbHatch
 10
0.0
 20
0.0
 30
0.0
210
0.0
220
0.0
230
1.0
  2
SOLID
 70
     1
 71
     1
 91
        1
 92
        1
 93
        1
 72
     4
 94
        3
 73
     0
 74
     0
 95
       29
 96
       25
 40
0.0
 40
0.0
 40
0.0
 40
0.0
 40
1.0
 40
1.0
 40
1.0
 40
2.0
 40
2.0
 40
2.0
 40
3.0
 40
3.0
 40
3.0
 40
4.0
 40
4.0
 40
4.0
 40
5.0
 40
5.0
 40
5.0
 40
6.0
 40
6.0
 40
6.0
 40
7.0
 40
7.0
 40
7.0
 40
8.0
 40
8.0
 40
8.0
 40
8.0
 10
2.7061767578125
 20
22.13047960069444
 10
2.7061767578125
 20
22.13047960069444
 10
2.703355577256944
 20
22.13047960069444
 10
2.703355577256944
 20
22.13047960069444
 10
2.703355577256944
 20
22.13047960069444
 10
2.543741861979166
 20
22.0443115234375
 10
2.543741861979166
 20
22.0443115234375
 10
2.543741861979166
 20
22.0443115234375
 10
2.519734700520833
 20
22.13895670572917
 10
2.519734700520833
 20
22.13895670572917
 10
2.519734700520833
 20
22.13895670572917
 10
2.720309787326388
 20
22.24629720052083
 10
2.720309787326388
 20
22.24629720052083
 10
2.720309787326388
 20
22.24629720052083
 10
2.826239691840277
 20
22.24629720052083
 10
2.826239691840277
 20
22.24629720052083
 10
2.826239691840277
 20
22.24629720052083
 10
2.826239691840277
 20
21.32817925347222
 10
2.826239691840277
 20
21.32817925347222
 10
2.826239691840277
 20
21.32817925347222
 10
2.7061767578125
 20
21.32817925347222
 10
2.7061767578125
 20
21.32817925347222
 10
2.7061767578125
 20
21.32817925347222
 10
2.7061767578125
 20
22.13047960069444
 10
2.7061767578125
 20
22.13047960069444
 97
        0
 97
        1
330
EE
 75
     2
 76
     1
 98
        1
 10
0.0
 20
0.0
450
        0
451
        0
460
0.0
461
0.0
452
        0
462
0.0
453
        0
470

  0
SPLINE
  5
F0
330
DA
100
AcDbEntity
  8
0
100
AcDbSpline
210
0.0
220
0.0
230
1.0
 70
     9
 71
     3
 72
    20
 73
    16
 74
     0
 42
0.0000000001
 43
0.0000000001
 40
0.0
 40
0.0
 40
0.0
 40
0.0
 40
1.0
 40
1.0
 40
1.0
 40
2.0
 40
2.0
 40
2.0
 40
3.0
 40
3.0
 40
3.0
 40
4.0
 40
4.0
 40
4.0
 40
5.0
 40
5.0
 40
5.0
 40
5.0
 10
3.278184678819444
 20
21.94402398003472
 30
0.0
 10
3.278184678819444
 20
21.82961697048611
 30
0.0
 10
3.347398546006944
 20
21.74910481770833
 30
0.0
 10
3.454752604166666
 20
21.74910481770833
 30
0.0
 10
3.5380859375
 20
21.74910481770833
 30
0.0
 10
3.60305447048611
 20
21.79006618923611
 30
0.0
 10
3.635552300347221
 20
21.84514702690972
 30
0.0
 10
3.64260525173611
 20
21.85645887586805
 30
0.0
 10
3.6468505859375
 20
21.87057834201389
 30
0.0
 10
3.6468505859375
 20
21.89035373263889
 30
0.0
 10
3.6468505859375
 20
22.04714626736111
 30
0.0
 10
3.588935004340277
 20
22.16720920138889
 30
0.0
 10
3.458984375
 20
22.16720920138889
 30
0.0
 10
3.353040907118055
 20
22.16720920138889
 30
0.0
 10
3.278184678819444
 20
22.073974609375
 30
0.0
 10
3.278184678819444
 20
21.94402398003472
 30
0.0
  0
SPLINE
  5
F1
330
DA
100
AcDbEntity
  8
0
100
AcDbSpline
210
0.0
220
0.0
230
1.0
 70
     9
 71
     3
 72
    41
 73
    37
 74
     0
 42
0.0000000001
 43
0.0000000001
 40
0.0
 40
0.0
 40
0.0
 40
0.0
 40
1.0
 40
1.0
 40
1.0
 40
2.0
 40
2.0
 40
2.0
 40
3.0
 40
3.0
 40
3.0
 40
4.0
 40
4.0
 40
4.0
 40
5.0
 40
5.0
 40
5.0
 40
6.0
 40
6.0
 40
6.0
 40
7.0
 40
7.0
 40
7.0
 40
8.0
 40
8.0
 40
8.0
 40
9.0
 40
9.0
 40
9.0
 40
10.0
 40
10.0
 40
10.0
 40
11.0
 40
11.0
 40
11.0
 40
12.0
 40
12.0
 40
12.0
 40
12.0
 10
3.232977973090277
 20
21.41575792100694
 30
0.0
 10
3.259819878472221
 20
21.41292317708333
 30
0.0
 10
3.2908935546875
 20
21.41575792100694
 30
0.0
 10
3.333265516493055
 20
21.41998969184028
 30
0.0
 10
3.405314127604166
 20
21.42987738715278
 30
0.0
 10
3.473103841145833
 20
21.45954047309027
 30
0.0
 10
3.525377061631944
 20
21.50897894965277
 30
0.0
 10
3.586113823784721
 20
21.56405978732639
 30
0.0
 10
3.629896375868055
 20
21.64458550347222
 30
0.0
 10
3.6468505859375
 20
21.75333658854166
 30
0.0
 10
3.6468505859375
 20
21.75333658854166
 30
0.0
 10
3.64260525173611
 20
21.75333658854166
 30
0.0
 10
3.64260525173611
 20
21.75333658854166
 30
0.0
 10
3.591756184895833
 20
21.69118923611111
 30
0.0
 10
3.518310546875
 20
21.65445963541666
 30
0.0
 10
3.426500108506944
 20
21.65445963541666
 30
0.0
 10
3.26123046875
 20
21.65445963541666
 30
0.0
 10
3.15530056423611
 20
21.77876790364583
 30
0.0
 10
3.15530056423611
 20
21.935546875
 30
0.0
 10
3.15530056423611
 20
22.10929361979166
 30
0.0
 10
3.281005859375
 20
22.2618408203125
 30
0.0
 10
3.4688720703125
 20
22.2618408203125
 30
0.0
 10
3.65673828125
 20
22.2618408203125
 30
0.0
 10
3.772555881076388
 20
22.10929361979166
 30
0.0
 10
3.772555881076388
 20
21.87481011284722
 30
0.0
 10
3.772555881076388
 20
21.67282443576389
 30
0.0
 10
3.704752604166666
 20
21.53157552083333
 30
0.0
 10
3.614352756076388
 20
21.44401041666666
 30
0.0
 10
3.54372829861111
 20
21.37479654947917
 30
0.0
 10
3.446275499131944
 20
21.33241102430555
 30
0.0
 10
3.347398546006944
 20
21.32111273871528
 30
0.0
 10
3.302191840277777
 20
21.31405978732639
 30
0.0
 10
3.262641059027777
 20
21.31263563368055
 30
0.0
 10
3.232977973090277
 20
21.31405978732639
 30
0.0
 10
3.232977973090277
 20
21.31405978732639
 30
0.0
 10
3.232977973090277
 20
21.41575792100694
 30
0.0
 10
3.232977973090277
 20
21.41575792100694
 30
0.0
  0
HATCH
  5
F2
330
DA
100
AcDbEntity
  8
0
 62
    18
420
        0
440
 33554687
100
AcDbHatch
 10
0.0
 20
0.0
 30
0.0
210
0.0
220
0.0
230
1.0
  2
SOLID
 70
     1
 71
     1
 91
        2
 92
        1
 93
        1
 72
     4
 94
        3
 73
     0
 74
     0
 95
       20
 96
       16
 40
0.0
 40
0.0
 40
0.0
 40
0.0
 40
1.0
 40
1.0
 40
1.0
 40
2.0
 40
2.0
 40
2.0
 40
3.0
 40
3.0
 40
3.0
 40
4.0
 40
4.0
 40
4.0
 40
5.0
 40
5.0
 40
5.0
 40
5.0
 10
3.278184678819444
 20
21.94402398003472
 10
3.278184678819444
 20
21.82961697048611
 10
3.347398546006944
 20
21.74910481770833
 10
3.454752604166666
 20
21.74910481770833
 10
3.5380859375
 20
21.74910481770833
 10
3.60305447048611
 20
21.79006618923611
 10
3.635552300347221
 20
21.84514702690972
 10
3.64260525173611
 20
21.85645887586805
 10
3.6468505859375
 20
21.87057834201389
 10
3.6468505859375
 20
21.89035373263889
 10
3.6468505859375
 20
22.04714626736111
 10
3.588935004340277
 20
22.16720920138889
 10
3.458984375
 20
22.16720920138889
 10
3.353040907118055
 20
22.16720920138889
 10
3.278184678819444
 20
22.073974609375
 10
3.278184678819444
 20
21.94402398003472
 97
        0
 97
        1
330
F0
 92
        1
 93
        1
 72
     4
 94
        3
 73
     0
 74
     0
 95
       41
 96
       37
 40
0.0
 40
0.0
 40
0.0
 40
0.0
 40
1.0
 40
1.0
 40
1.0
 40
2.0
 40
2.0
 40
2.0
 40
3.0
 40
3.0
 40
3.0
 40
4.0
 40
4.0
 40
4.0
 40
5.0
 40
5.0
 40
5.0
 40
6.0
 40
6.0
 40
6.0
 40
7.0
 40
7.0
 40
7.0
 40
8.0
 40
8.0
 40
8.0
 40
9.0
 40
9.0
 40
9.0
 40
10.0
 40
10.0
 40
10.0
 40
11.0
 40
11.0
 40
11.0
 40
12.0
 40
12.0
 40
12.0
 40
12.0
 10
3.232977973090277
 20
21.41575792100694
 10
3.259819878472221
 20
21.41292317708333
 10
3.2908935546875
 20
21.41575792100694
 10
3.333265516493055
 20
21.41998969184028
 10
3.405314127604166
 20
21.42987738715278
 10
3.473103841145833
 20
21.45954047309027
 10
3.525377061631944
 20
21.50897894965277
 10
3.586113823784721
 20
21.56405978732639
 10
3.629896375868055
 20
21.64458550347222
 10
3.6468505859375
 20
21.75333658854166
 10
3.6468505859375
 20
21.75333658854166
 10
3.64260525173611
 20
21.75333658854166
 10
3.64260525173611
 20
21.75333658854166
 10
3.591756184895833
 20
21.69118923611111
 10
3.518310546875
 20
21.65445963541666
 10
3.426500108506944
 20
21.65445963541666
 10
3.26123046875
 20
21.65445963541666
 10
3.15530056423611
 20
21.77876790364583
 10
3.15530056423611
 20
21.935546875
 10
3.15530056423611
 20
22.10929361979166
 10
3.281005859375
 20
22.2618408203125
 10
3.4688720703125
 20
22.2618408203125
 10
3.65673828125
 20
22.2618408203125
 10
3.772555881076388
 20
22.10929361979166
 10
3.772555881076388
 20
21.87481011284722
 10
3.772555881076388
 20
21.67282443576389
 10
3.704752604166666
 20
21.53157552083333
 10
3.614352756076388
 20
21.44401041666666
 10
3.54372829861111
 20
21.37479654947917
 10
3.446275499131944
 20
21.33241102430555
 10
3.347398546006944
 20
21.32111273871528
 10
3.302191840277777
 20
21.31405978732639
 10
3.262641059027777
 20
21.31263563368055
 10
3.232977973090277
 20
21.31405978732639
 10
3.232977973090277
 20
21.31405978732639
 10
3.232977973090277
 20
21.41575792100694
 10
3.232977973090277
 20
21.41575792100694
 97
        0
 97
        1
330
F1
 75
     2
 76
     1
 98
        1
 10
0.0
 20
0.0
450
        0
451
        0
460
0.0
461
0.0
452
        0
462
0.0
453
        0
470

  0
SPLINE
  5
F3
330
DA
100
AcDbEntity
  8
0
100
AcDbSpline
210
0.0
220
0.0
230
1.0
 70
    11
 71
     3
 72
    17
 73
    13
 74
     0
 42
0.0000000001
 43
0.0000000001
 40
0.0
 40
0.0
 40
0.0
 40
0.0
 40
1.0
 40
1.0
 40
1.0
 40
2.0
 40
2.0
 40
2.0
 40
3.0
 40
3.0
 40
3.0
 40
4.0
 40
4.0
 40
4.0
 40
4.0
 10
4.22732204861111
 20
22.29573567708333
 30
0.0
 10
4.22732204861111
 20
22.29573567708333
 30
0.0
 10
4.203314887152777
 20
21.95674641927083
 30
0.0
 10
4.203314887152777
 20
21.95674641927083
 30
0.0
 10
4.203314887152777
 20
21.95674641927083
 30
0.0
 10
4.128458658854166
 20
21.95674641927083
 30
0.0
 10
4.128458658854166
 20
21.95674641927083
 30
0.0
 10
4.128458658854166
 20
21.95674641927083
 30
0.0
 10
4.104437934027777
 20
22.29573567708333
 30
0.0
 10
4.104437934027777
 20
22.29573567708333
 30
0.0
 10
4.104437934027777
 20
22.29573567708333
 30
0.0
 10
4.22732204861111
 20
22.29573567708333
 30
0.0
 10
4.22732204861111
 20
22.29573567708333
 30
0.0
  0
SPLINE
  5
F4
330
DA
100
AcDbEntity
  8
0
100
AcDbSpline
210
0.0
220
0.0
230
1.0
 70
    11
 71
     3
 72
    17
 73
    13
 74
     0
 42
0.0000000001
 43
0.0000000001
 40
0.0
 40
0.0
 40
0.0
 40
0.0
 40
1.0
 40
1.0
 40
1.0
 40
2.0
 40
2.0
 40
2.0
 40
3.0
 40
3.0
 40
3.0
 40
4.0
 40
4.0
 40
4.0
 40
4.0
 10
4.016859266493055
 20
22.29573567708333
 30
0.0
 10
4.016859266493055
 20
22.29573567708333
 30
0.0
 10
3.992852105034721
 20
21.95674641927083
 30
0.0
 10
3.992852105034721
 20
21.95674641927083
 30
0.0
 10
3.992852105034721
 20
21.95674641927083
 30
0.0
 10
3.916571723090277
 20
21.95674641927083
 30
0.0
 10
3.916571723090277
 20
21.95674641927083
 30
0.0
 10
3.916571723090277
 20
21.95674641927083
 30
0.0
 10
3.893975151909721
 20
22.29573567708333
 30
0.0
 10
3.893975151909721
 20
22.29573567708333
 30
0.0
 10
3.893975151909721
 20
22.29573567708333
 30
0.0
 10
4.016859266493055
 20
22.29573567708333
 30
0.0
 10
4.016859266493055
 20
22.29573567708333
 30
0.0
  0
HATCH
  5
F5
330
DA
100
AcDbEntity
  8
0
 62
    18
420
        0
440
 33554687
100
AcDbHatch
 10
0.0
 20
0.0
 30
0.0
210
0.0
220
0.0
230
1.0
  2
SOLID
 70
     1
 71
     1
 91
        2
 92
        1
 93
        1
 72
     4
 94
        3
 73
     0
 74
     0
 95
       17
 96
       13
 40
0.0
 40
0.0
 40
0.0
 40
0.0
 40
1.0
 40
1.0
 40
1.0
 40
2.0
 40
2.0
 40
2.0
 40
3.0
 40
3.0
 40
3.0
 40
4.0
 40
4.0
 40
4.0
 40
4.0
 10
4.22732204861111
 20
22.29573567708333
 10
4.22732204861111
 20
22.29573567708333
 10
4.203314887152777
 20
21.95674641927083
 10
4.203314887152777
 20
21.95674641927083
 10
4.203314887152777
 20
21.95674641927083
 10
4.128458658854166
 20
21.95674641927083
 10
4.128458658854166
 20
21.95674641927083
 10
4.128458658854166
 20
21.95674641927083
 10
4.104437934027777
 20
22.29573567708333
 10
4.104437934027777
 20
22.29573567708333
 10
4.104437934027777
 20
22.29573567708333
 10
4.22732204861111
 20
22.29573567708333
 10
4.22732204861111
 20
22.29573567708333
 97
        0
 97
        1
330
F3
 92
        1
 93
        1
 72
     4
 94
        3
 73
     0
 74
     0
 95
       17
 96
       13
 40
0.0
 40
0.0
 40
0.0
 40
0.0
 40
1.0
 40
1.0
 40
1.0
 40
2.0
 40
2.0
 40
2.0
 40
3.0
 40
3.0
 40
3.0
 40
4.0
 40
4.0
 40
4.0
 40
4.0
 10
4.016859266493055
 20
22.29573567708333
 10
4.016859266493055
 20
22.29573567708333
 10
3.992852105034721
 20
21.95674641927083
 10
3.992852105034721
 20
21.95674641927083
 10
3.992852105034721
 20
21.95674641927083
 10
3.916571723090277
 20
21.95674641927083
 10
3.916571723090277
 20
21.95674641927083
 10
3.916571723090277
 20
21.95674641927083
 10
3.893975151909721
 20
22.29573567708333
 10
3.893975151909721
 20
22.29573567708333
 10
3.893975151909721
 20
22.29573567708333
 10
4.016859266493055
 20
22.29573567708333
 10
4.016859266493055
 20
22.29573567708333
 97
        0
 97
        1
330
F4
 75
     2
 76
     1
 98
        1
 10
0.0
 20
0.0
450
        0
451
        0
460
0.0
461
0.0
452
        0
462
0.0
453
        0
470

  0
ENDBLK
  5
DD
330
DA
100
AcDbEntity
  8
0
100
AcDbBlockEnd
  0
BLOCK
  5
F8
330
F6
100
AcDbEntity
  8
0
100
AcDbBlockBegin
  2
Block_10
 70
     0
 10
0.0
 20
0.0
 30
0.0
  3
Block_10
  1

  0
INSERT
  5
FB
330
F6
100
AcDbEntity
  8
0
100
AcDbBlockReference
  2
Block_11
 10
0.0
 20
0.0
 30
0.0
  0
ENDBLK
  5
F9
330
F6
100
AcDbEntity
  8
0
100
AcDbBlockEnd
  0
BLOCK
  5
FC
330
FA
100
AcDbEntity
  8
0
100
AcDbBlockBegin
  2
Block_11
 70
     0
 10
0.0
 20
0.0
 30
0.0
  3
Block_11
  1

  0
SPLINE
  5
FE
330
FA
100
AcDbEntity
  8
0
100
AcDbSpline
210
0.0
220
0.0
230
1.0
 70
    11
 71
     3
 72
    47
 73
    43
 74
     0
 42
0.0000000001
 43
0.0000000001
 40
0.0
 40
0.0
 40
0.0
 40
0.0
 40
1.0
 40
1.0
 40
1.0
 40
2.0
 40
2.0
 40
2.0
 40
3.0
 40
3.0
 40
3.0
 40
4.0
 40
4.0
 40
4.0
 40
5.0
 40
5.0
 40
5.0
 40
6.0
 40
6.0
 40
6.0
 40
7.0
 40
7.0
 40
7.0
 40
8.0
 40
8.0
 40
8.0
 40
9.0
 40
9.0
 40
9.0
 40
10.0
 40
10.0
 40
10.0
 40
11.0
 40
11.0
 40
11.0
 40
12.0
 40
12.0
 40
12.0
 40
13.0
 40
13.0
 40
13.0
 40
14.0
 40
14.0
 40
14.0
 40
14.0
 10
-2.482944064670138
 20
18.82817925347222
 30
0.0
 10
-2.482944064670138
 20
18.82817925347222
 30
0.0
 10
-2.482944064670138
 20
18.90445963541666
 30
0.0
 10
-2.482944064670138
 20
18.90445963541666
 30
0.0
 10
-2.482944064670138
 20
18.90445963541666
 30
0.0
 10
-2.385484483506944
 20
18.99909125434027
 30
0.0
 10
-2.385484483506944
 20
18.99909125434027
 30
0.0
 10
-2.151007758246527
 20
19.22226291232639
 30
0.0
 10
-2.045071072048611
 20
19.34091525607639
 30
0.0
 10
-2.043660481770833
 20
19.47934299045139
 30
0.0
 10
-2.043660481770833
 20
19.57256401909722
 30
0.0
 10
-2.088860405815972
 20
19.65873209635416
 30
0.0
 10
-2.225870768229166
 20
19.65873209635416
 30
0.0
 10
-2.309210883246527
 20
19.65873209635416
 30
0.0
 10
-2.378424750434027
 20
19.61634657118055
 30
0.0
 10
-2.420796712239583
 20
19.58104112413194
 30
0.0
 10
-2.420796712239583
 20
19.58104112413194
 30
0.0
 10
-2.460347493489583
 20
19.66861979166666
 30
0.0
 10
-2.460347493489583
 20
19.66861979166666
 30
0.0
 10
-2.396782769097221
 20
19.7222900390625
 30
0.0
 10
-2.306382921006944
 20
19.7618408203125
 30
0.0
 10
-2.200446234809027
 20
19.7618408203125
 30
0.0
 10
-2.002699110243055
 20
19.7618408203125
 30
0.0
 10
-1.919358995225694
 20
19.62623426649305
 30
0.0
 10
-1.919358995225694
 20
19.494873046875
 30
0.0
 10
-1.919358995225694
 20
19.32538519965277
 30
0.0
 10
-2.042249891493055
 20
19.18836805555555
 30
0.0
 10
-2.235758463541666
 20
19.00191243489583
 30
0.0
 10
-2.235758463541666
 20
19.00191243489583
 30
0.0
 10
-2.309210883246527
 20
18.93412272135416
 30
0.0
 10
-2.309210883246527
 20
18.93412272135416
 30
0.0
 10
-2.309210883246527
 20
18.93412272135416
 30
0.0
 10
-2.309210883246527
 20
18.93128797743055
 30
0.0
 10
-2.309210883246527
 20
18.93128797743055
 30
0.0
 10
-2.309210883246527
 20
18.93128797743055
 30
0.0
 10
-1.896762424045138
 20
18.93128797743055
 30
0.0
 10
-1.896762424045138
 20
18.93128797743055
 30
0.0
 10
-1.896762424045138
 20
18.93128797743055
 30
0.0
 10
-1.896762424045138
 20
18.82817925347222
 30
0.0
 10
-1.896762424045138
 20
18.82817925347222
 30
0.0
 10
-1.896762424045138
 20
18.82817925347222
 30
0.0
 10
-2.482944064670138
 20
18.82817925347222
 30
0.0
 10
-2.482944064670138
 20
18.82817925347222
 30
0.0
  0
HATCH
  5
FF
330
FA
100
AcDbEntity
  8
0
 62
    18
420
        0
440
 33554687
100
AcDbHatch
 10
0.0
 20
0.0
 30
0.0
210
0.0
220
0.0
230
1.0
  2
SOLID
 70
     1
 71
     1
 91
        1
 92
        1
 93
        1
 72
     4
 94
        3
 73
     0
 74
     0
 95
       47
 96
       43
 40
0.0
 40
0.0
 40
0.0
 40
0.0
 40
1.0
 40
1.0
 40
1.0
 40
2.0
 40
2.0
 40
2.0
 40
3.0
 40
3.0
 40
3.0
 40
4.0
 40
4.0
 40
4.0
 40
5.0
 40
5.0
 40
5.0
 40
6.0
 40
6.0
 40
6.0
 40
7.0
 40
7.0
 40
7.0
 40
8.0
 40
8.0
 40
8.0
 40
9.0
 40
9.0
 40
9.0
 40
10.0
 40
10.0
 40
10.0
 40
11.0
 40
11.0
 40
11.0
 40
12.0
 40
12.0
 40
12.0
 40
13.0
 40
13.0
 40
13.0
 40
14.0
 40
14.0
 40
14.0
 40
14.0
 10
-2.482944064670138
 20
18.82817925347222
 10
-2.482944064670138
 20
18.82817925347222
 10
-2.482944064670138
 20
18.90445963541666
 10
-2.482944064670138
 20
18.90445963541666
 10
-2.482944064670138
 20
18.90445963541666
 10
-2.385484483506944
 20
18.99909125434027
 10
-2.385484483506944
 20
18.99909125434027
 10
-2.151007758246527
 20
19.22226291232639
 10
-2.045071072048611
 20
19.34091525607639
 10
-2.043660481770833
 20
19.47934299045139
 10
-2.043660481770833
 20
19.57256401909722
 10
-2.088860405815972
 20
19.65873209635416
 10
-2.225870768229166
 20
19.65873209635416
 10
-2.309210883246527
 20
19.65873209635416
 10
-2.378424750434027
 20
19.61634657118055
 10
-2.420796712239583
 20
19.58104112413194
 10
-2.420796712239583
 20
19.58104112413194
 10
-2.460347493489583
 20
19.66861979166666
 10
-2.460347493489583
 20
19.66861979166666
 10
-2.396782769097221
 20
19.7222900390625
 10
-2.306382921006944
 20
19.7618408203125
 10
-2.200446234809027
 20
19.7618408203125
 10
-2.002699110243055
 20
19.7618408203125
 10
-1.919358995225694
 20
19.62623426649305
 10
-1.919358995225694
 20
19.494873046875
 10
-1.919358995225694
 20
19.32538519965277
 10
-2.042249891493055
 20
19.18836805555555
 10
-2.235758463541666
 20
19.00191243489583
 10
-2.235758463541666
 20
19.00191243489583
 10
-2.309210883246527
 20
18.93412272135416
 10
-2.309210883246527
 20
18.93412272135416
 10
-2.309210883246527
 20
18.93412272135416
 10
-2.309210883246527
 20
18.93128797743055
 10
-2.309210883246527
 20
18.93128797743055
 10
-2.309210883246527
 20
18.93128797743055
 10
-1.896762424045138
 20
18.93128797743055
 10
-1.896762424045138
 20
18.93128797743055
 10
-1.896762424045138
 20
18.93128797743055
 10
-1.896762424045138
 20
18.82817925347222
 10
-1.896762424045138
 20
18.82817925347222
 10
-1.896762424045138
 20
18.82817925347222
 10
-2.482944064670138
 20
18.82817925347222
 10
-2.482944064670138
 20
18.82817925347222
 97
        0
 97
        1
330
FE
 75
     2
 76
     1
 98
        1
 10
0.0
 20
0.0
450
        0
451
        0
460
0.0
461
0.0
452
        0
462
0.0
453
        0
470

  0
SPLINE
  5
100
330
FA
100
AcDbEntity
  8
0
100
AcDbSpline
210
0.0
220
0.0
230
1.0
 70
    11
 71
     3
 72
    29
 73
    25
 74
     0
 42
0.0000000001
 43
0.0000000001
 40
0.0
 40
0.0
 40
0.0
 40
0.0
 40
1.0
 40
1.0
 40
1.0
 40
2.0
 40
2.0
 40
2.0
 40
3.0
 40
3.0
 40
3.0
 40
4.0
 40
4.0
 40
4.0
 40
5.0
 40
5.0
 40
5.0
 40
6.0
 40
6.0
 40
6.0
 40
7.0
 40
7.0
 40
7.0
 40
8.0
 40
8.0
 40
8.0
 40
8.0
 10
-1.16231960720486
 20
19.74629720052083
 30
0.0
 10
-1.16231960720486
 20
19.74629720052083
 30
0.0
 10
-1.16231960720486
 20
19.66437445746527
 30
0.0
 10
-1.16231960720486
 20
19.66437445746527
 30
0.0
 10
-1.16231960720486
 20
19.66437445746527
 30
0.0
 10
-1.562052408854166
 20
18.82817925347222
 30
0.0
 10
-1.562052408854166
 20
18.82817925347222
 30
0.0
 10
-1.562052408854166
 20
18.82817925347222
 30
0.0
 10
-1.690592447916666
 20
18.82817925347222
 30
0.0
 10
-1.690592447916666
 20
18.82817925347222
 30
0.0
 10
-1.690592447916666
 20
18.82817925347222
 30
0.0
 10
-1.292270236545138
 20
19.64036729600694
 30
0.0
 10
-1.292270236545138
 20
19.64036729600694
 30
0.0
 10
-1.292270236545138
 20
19.64036729600694
 30
0.0
 10
-1.292270236545138
 20
19.6431884765625
 30
0.0
 10
-1.292270236545138
 20
19.6431884765625
 30
0.0
 10
-1.292270236545138
 20
19.6431884765625
 30
0.0
 10
-1.741441514756944
 20
19.6431884765625
 30
0.0
 10
-1.741441514756944
 20
19.6431884765625
 30
0.0
 10
-1.741441514756944
 20
19.6431884765625
 30
0.0
 10
-1.741441514756944
 20
19.74629720052083
 30
0.0
 10
-1.741441514756944
 20
19.74629720052083
 30
0.0
 10
-1.741441514756944
 20
19.74629720052083
 30
0.0
 10
-1.16231960720486
 20
19.74629720052083
 30
0.0
 10
-1.16231960720486
 20
19.74629720052083
 30
0.0
  0
HATCH
  5
101
330
FA
100
AcDbEntity
  8
0
 62
    18
420
        0
440
 33554687
100
AcDbHatch
 10
0.0
 20
0.0
 30
0.0
210
0.0
220
0.0
230
1.0
  2
SOLID
 70
     1
 71
     1
 91
        1
 92
        1
 93
        1
 72
     4
 94
        3
 73
     0
 74
     0
 95
       29
 96
       25
 40
0.0
 40
0.0
 40
0.0
 40
0.0
 40
1.0
 40
1.0
 40
1.0
 40
2.0
 40
2.0
 40
2.0
 40
3.0
 40
3.0
 40
3.0
 40
4.0
 40
4.0
 40
4.0
 40
5.0
 40
5.0
 40
5.0
 40
6.0
 40
6.0
 40
6.0
 40
7.0
 40
7.0
 40
7.0
 40
8.0
 40
8.0
 40
8.0
 40
8.0
 10
-1.16231960720486
 20
19.74629720052083
 10
-1.16231960720486
 20
19.74629720052083
 10
-1.16231960720486
 20
19.66437445746527
 10
-1.16231960720486
 20
19.66437445746527
 10
-1.16231960720486
 20
19.66437445746527
 10
-1.562052408854166
 20
18.82817925347222
 10
-1.562052408854166
 20
18.82817925347222
 10
-1.562052408854166
 20
18.82817925347222
 10
-1.690592447916666
 20
18.82817925347222
 10
-1.690592447916666
 20
18.82817925347222
 10
-1.690592447916666
 20
18.82817925347222
 10
-1.292270236545138
 20
19.64036729600694
 10
-1.292270236545138
 20
19.64036729600694
 10
-1.292270236545138
 20
19.64036729600694
 10
-1.292270236545138
 20
19.6431884765625
 10
-1.292270236545138
 20
19.6431884765625
 10
-1.292270236545138
 20
19.6431884765625
 10
-1.741441514756944
 20
19.6431884765625
 10
-1.741441514756944
 20
19.6431884765625
 10
-1.741441514756944
 20
19.6431884765625
 10
-1.741441514756944
 20
19.74629720052083
 10
-1.741441514756944
 20
19.74629720052083
 10
-1.741441514756944
 20
19.74629720052083
 10
-1.16231960720486
 20
19.74629720052083
 10
-1.16231960720486
 20
19.74629720052083
 97
        0
 97
        1
330
100
 75
     2
 76
     1
 98
        1
 10
0.0
 20
0.0
450
        0
451
        0
460
0.0
461
0.0
452
        0
462
0.0
453
        0
470

  0
SPLINE
  5
102
330
FA
100
AcDbEntity
  8
0
100
AcDbSpline
210
0.0
220
0.0
230
1.0
 70
     9
 71
     3
 72
    17
 73
    13
 74
     0
 42
0.0000000001
 43
0.0000000001
 40
0.0
 40
0.0
 40
0.0
 40
0.0
 40
1.0
 40
1.0
 40
1.0
 40
2.0
 40
2.0
 40
2.0
 40
3.0
 40
3.0
 40
3.0
 40
4.0
 40
4.0
 40
4.0
 40
4.0
 10
-1.023946126302083
 20
18.90162489149305
 30
0.0
 10
-1.023946126302083
 20
18.95389811197916
 30
0.0
 10
-0.9886338975694444
 20
18.99061414930555
 30
0.0
 10
-0.9391954210069444
 20
18.99061414930555
 30
0.0
 10
-0.8897637261284721
 20
18.99061414930555
 30
0.0
 10
-0.855862087673611
 20
18.95389811197916
 30
0.0
 10
-0.855862087673611
 20
18.90162489149305
 30
0.0
 10
-0.855862087673611
 20
18.85077582465277
 30
0.0
 10
-0.8883463541666666
 20
18.81263563368055
 30
0.0
 10
-0.94061279296875
 20
18.81263563368055
 30
0.0
 10
-0.99005126953125
 20
18.81263563368055
 30
0.0
 10
-1.023946126302083
 20
18.85077582465277
 30
0.0
 10
-1.023946126302083
 20
18.90162489149305
 30
0.0
  0
HATCH
  5
103
330
FA
100
AcDbEntity
  8
0
 62
    18
420
        0
440
 33554687
100
AcDbHatch
 10
0.0
 20
0.0
 30
0.0
210
0.0
220
0.0
230
1.0
  2
SOLID
 70
     1
 71
     1
 91
        1
 92
        1
 93
        1
 72
     4
 94
        3
 73
     0
 74
     0
 95
       17
 96
       13
 40
0.0
 40
0.0
 40
0.0
 40
0.0
 40
1.0
 40
1.0
 40
1.0
 40
2.0
 40
2.0
 40
2.0
 40
3.0
 40
3.0
 40
3.0
 40
4.0
 40
4.0
 40
4.0
 40
4.0
 10
-1.023946126302083
 20
18.90162489149305
 10
-1.023946126302083
 20
18.95389811197916
 10
-0.9886338975694444
 20
18.99061414930555
 10
-0.9391954210069444
 20
18.99061414930555
 10
-0.8897637261284721
 20
18.99061414930555
 10
-0.855862087673611
 20
18.95389811197916
 10
-0.855862087673611
 20
18.90162489149305
 10
-0.855862087673611
 20
18.85077582465277
 10
-0.8883463541666666
 20
18.81263563368055
 10
-0.94061279296875
 20
18.81263563368055
 10
-0.99005126953125
 20
18.81263563368055
 10
-1.023946126302083
 20
18.85077582465277
 10
-1.023946126302083
 20
18.90162489149305
 97
        0
 97
        1
330
102
 75
     2
 76
     1
 98
        1
 10
0.0
 20
0.0
450
        0
451
        0
460
0.0
461
0.0
452
        0
462
0.0
453
        0
470

  0
SPLINE
  5
104
330
FA
100
AcDbEntity
  8
0
100
AcDbSpline
210
0.0
220
0.0
230
1.0
 70
    11
 71
     3
 72
    29
 73
    25
 74
     0
 42
0.0000000001
 43
0.0000000001
 40
0.0
 40
0.0
 40
0.0
 40
0.0
 40
1.0
 40
1.0
 40
1.0
 40
2.0
 40
2.0
 40
2.0
 40
3.0
 40
3.0
 40
3.0
 40
4.0
 40
4.0
 40
4.0
 40
5.0
 40
5.0
 40
5.0
 40
6.0
 40
6.0
 40
6.0
 40
7.0
 40
7.0
 40
7.0
 40
8.0
 40
8.0
 40
8.0
 40
8.0
 10
-0.1454128689236111
 20
19.74629720052083
 30
0.0
 10
-0.1454128689236111
 20
19.74629720052083
 30
0.0
 10
-0.1454128689236111
 20
19.66437445746527
 30
0.0
 10
-0.1454128689236111
 20
19.66437445746527
 30
0.0
 10
-0.1454128689236111
 20
19.66437445746527
 30
0.0
 10
-0.5451456705729166
 20
18.82817925347222
 30
0.0
 10
-0.5451456705729166
 20
18.82817925347222
 30
0.0
 10
-0.5451456705729166
 20
18.82817925347222
 30
0.0
 10
-0.6736857096354166
 20
18.82817925347222
 30
0.0
 10
-0.6736857096354166
 20
18.82817925347222
 30
0.0
 10
-0.6736857096354166
 20
18.82817925347222
 30
0.0
 10
-0.2753634982638889
 20
19.64036729600694
 30
0.0
 10
-0.2753634982638889
 20
19.64036729600694
 30
0.0
 10
-0.2753634982638889
 20
19.64036729600694
 30
0.0
 10
-0.2753634982638889
 20
19.6431884765625
 30
0.0
 10
-0.2753634982638889
 20
19.6431884765625
 30
0.0
 10
-0.2753634982638889
 20
19.6431884765625
 30
0.0
 10
-0.7245347764756945
 20
19.6431884765625
 30
0.0
 10
-0.7245347764756945
 20
19.6431884765625
 30
0.0
 10
-0.7245347764756945
 20
19.6431884765625
 30
0.0
 10
-0.7245347764756945
 20
19.74629720052083
 30
0.0
 10
-0.7245347764756945
 20
19.74629720052083
 30
0.0
 10
-0.7245347764756945
 20
19.74629720052083
 30
0.0
 10
-0.1454128689236111
 20
19.74629720052083
 30
0.0
 10
-0.1454128689236111
 20
19.74629720052083
 30
0.0
  0
HATCH
  5
105
330
FA
100
AcDbEntity
  8
0
 62
    18
420
        0
440
 33554687
100
AcDbHatch
 10
0.0
 20
0.0
 30
0.0
210
0.0
220
0.0
230
1.0
  2
SOLID
 70
     1
 71
     1
 91
        1
 92
        1
 93
        1
 72
     4
 94
        3
 73
     0
 74
     0
 95
       29
 96
       25
 40
0.0
 40
0.0
 40
0.0
 40
0.0
 40
1.0
 40
1.0
 40
1.0
 40
2.0
 40
2.0
 40
2.0
 40
3.0
 40
3.0
 40
3.0
 40
4.0
 40
4.0
 40
4.0
 40
5.0
 40
5.0
 40
5.0
 40
6.0
 40
6.0
 40
6.0
 40
7.0
 40
7.0
 40
7.0
 40
8.0
 40
8.0
 40
8.0
 40
8.0
 10
-0.1454128689236111
 20
19.74629720052083
 10
-0.1454128689236111
 20
19.74629720052083
 10
-0.1454128689236111
 20
19.66437445746527
 10
-0.1454128689236111
 20
19.66437445746527
 10
-0.1454128689236111
 20
19.66437445746527
 10
-0.5451456705729166
 20
18.82817925347222
 10
-0.5451456705729166
 20
18.82817925347222
 10
-0.5451456705729166
 20
18.82817925347222
 10
-0.6736857096354166
 20
18.82817925347222
 10
-0.6736857096354166
 20
18.82817925347222
 10
-0.6736857096354166
 20
18.82817925347222
 10
-0.2753634982638889
 20
19.64036729600694
 10
-0.2753634982638889
 20
19.64036729600694
 10
-0.2753634982638889
 20
19.64036729600694
 10
-0.2753634982638889
 20
19.6431884765625
 10
-0.2753634982638889
 20
19.6431884765625
 10
-0.2753634982638889
 20
19.6431884765625
 10
-0.7245347764756945
 20
19.6431884765625
 10
-0.7245347764756945
 20
19.6431884765625
 10
-0.7245347764756945
 20
19.6431884765625
 10
-0.7245347764756945
 20
19.74629720052083
 10
-0.7245347764756945
 20
19.74629720052083
 10
-0.7245347764756945
 20
19.74629720052083
 10
-0.1454128689236111
 20
19.74629720052083
 10
-0.1454128689236111
 20
19.74629720052083
 97
        0
 97
        1
330
104
 75
     2
 76
     1
 98
        1
 10
0.0
 20
0.0
450
        0
451
        0
460
0.0
461
0.0
452
        0
462
0.0
453
        0
470

  0
SPLINE
  5
106
330
FA
100
AcDbEntity
  8
0
100
AcDbSpline
210
0.0
220
0.0
230
1.0
 70
    11
 71
     3
 72
    50
 73
    46
 74
     0
 42
0.0000000001
 43
0.0000000001
 40
0.0
 40
0.0
 40
0.0
 40
0.0
 40
1.0
 40
1.0
 40
1.0
 40
2.0
 40
2.0
 40
2.0
 40
3.0
 40
3.0
 40
3.0
 40
4.0
 40
4.0
 40
4.0
 40
5.0
 40
5.0
 40
5.0
 40
6.0
 40
6.0
 40
6.0
 40
7.0
 40
7.0
 40
7.0
 40
8.0
 40
8.0
 40
8.0
 40
9.0
 40
9.0
 40
9.0
 40
10.0
 40
10.0
 40
10.0
 40
11.0
 40
11.0
 40
11.0
 40
12.0
 40
12.0
 40
12.0
 40
13.0
 40
13.0
 40
13.0
 40
14.0
 40
14.0
 40
14.0
 40
15.0
 40
15.0
 40
15.0
 40
15.0
 10
0.5311211480034723
 20
19.64177788628472
 30
0.0
 10
0.5311211480034723
 20
19.64177788628472
 30
0.0
 10
0.1808200412326389
 20
19.64177788628472
 30
0.0
 10
0.1808200412326389
 20
19.64177788628472
 30
0.0
 10
0.1808200412326389
 20
19.64177788628472
 30
0.0
 10
0.1455078125
 20
19.40589735243055
 30
0.0
 10
0.1455078125
 20
19.40589735243055
 30
0.0
 10
0.1666937934027778
 20
19.40871853298611
 30
0.0
 10
0.1864691840277778
 20
19.41153971354166
 30
0.0
 10
0.2203708224826389
 20
19.41153971354166
 30
0.0
 10
0.2909952799479166
 20
19.41153971354166
 30
0.0
 10
0.3616197374131944
 20
19.39600965711805
 30
0.0
 10
0.4181179470486111
 20
19.36210123697916
 30
0.0
 10
0.4901597764756945
 20
19.32113986545139
 30
0.0
 10
0.5494791666666666
 20
19.24203830295139
 30
0.0
 10
0.5494791666666666
 20
19.126220703125
 30
0.0
 10
0.5494791666666666
 20
18.94683159722222
 30
0.0
 10
0.4068196614583333
 20
18.81263563368055
 30
0.0
 10
0.2076551649305555
 20
18.81263563368055
 30
0.0
 10
0.1073676215277778
 20
18.81263563368055
 30
0.0
 10
0.0226236979166667
 20
18.84088812934027
 30
0.0
 10
-0.0211656358506945
 20
18.869140625
 30
0.0
 10
-0.0211656358506945
 20
18.869140625
 30
0.0
 10
0.0099080403645833
 20
18.96378580729166
 30
0.0
 10
0.0099080403645833
 20
18.96378580729166
 30
0.0
 10
0.0480482313368056
 20
18.94117567274305
 30
0.0
 10
0.1229112413194444
 20
18.91292317708333
 30
0.0
 10
0.2062445746527778
 20
18.91292317708333
 30
0.0
 10
0.3234795464409722
 20
18.91292317708333
 30
0.0
 10
0.42376708984375
 20
18.98920355902777
 30
0.0
 10
0.42376708984375
 20
19.11208767361111
 30
0.0
 10
0.4223564995659723
 20
19.23074001736111
 30
0.0
 10
0.3432549370659722
 20
19.31549750434027
 30
0.0
 10
0.1596340603298611
 20
19.31549750434027
 30
0.0
 10
0.1073676215277778
 20
19.31549750434027
 30
0.0
 10
0.06640625
 20
19.30984157986111
 30
0.0
 10
0.0325113932291667
 20
19.30560980902777
 30
0.0
 10
0.0325113932291667
 20
19.30560980902777
 30
0.0
 10
0.0918307834201389
 20
19.74629720052083
 30
0.0
 10
0.0918307834201389
 20
19.74629720052083
 30
0.0
 10
0.0918307834201389
 20
19.74629720052083
 30
0.0
 10
0.5311211480034723
 20
19.74629720052083
 30
0.0
 10
0.5311211480034723
 20
19.74629720052083
 30
0.0
 10
0.5311211480034723
 20
19.74629720052083
 30
0.0
 10
0.5311211480034723
 20
19.64177788628472
 30
0.0
 10
0.5311211480034723
 20
19.64177788628472
 30
0.0
  0
HATCH
  5
107
330
FA
100
AcDbEntity
  8
0
 62
    18
420
        0
440
 33554687
100
AcDbHatch
 10
0.0
 20
0.0
 30
0.0
210
0.0
220
0.0
230
1.0
  2
SOLID
 70
     1
 71
     1
 91
        1
 92
        1
 93
        1
 72
     4
 94
        3
 73
     0
 74
     0
 95
       50
 96
       46
 40
0.0
 40
0.0
 40
0.0
 40
0.0
 40
1.0
 40
1.0
 40
1.0
 40
2.0
 40
2.0
 40
2.0
 40
3.0
 40
3.0
 40
3.0
 40
4.0
 40
4.0
 40
4.0
 40
5.0
 40
5.0
 40
5.0
 40
6.0
 40
6.0
 40
6.0
 40
7.0
 40
7.0
 40
7.0
 40
8.0
 40
8.0
 40
8.0
 40
9.0
 40
9.0
 40
9.0
 40
10.0
 40
10.0
 40
10.0
 40
11.0
 40
11.0
 40
11.0
 40
12.0
 40
12.0
 40
12.0
 40
13.0
 40
13.0
 40
13.0
 40
14.0
 40
14.0
 40
14.0
 40
15.0
 40
15.0
 40
15.0
 40
15.0
 10
0.5311211480034723
 20
19.64177788628472
 10
0.5311211480034723
 20
19.64177788628472
 10
0.1808200412326389
 20
19.64177788628472
 10
0.1808200412326389
 20
19.64177788628472
 10
0.1808200412326389
 20
19.64177788628472
 10
0.1455078125
 20
19.40589735243055
 10
0.1455078125
 20
19.40589735243055
 10
0.1666937934027778
 20
19.40871853298611
 10
0.1864691840277778
 20
19.41153971354166
 10
0.2203708224826389
 20
19.41153971354166
 10
0.2909952799479166
 20
19.41153971354166
 10
0.3616197374131944
 20
19.39600965711805
 10
0.4181179470486111
 20
19.36210123697916
 10
0.4901597764756945
 20
19.32113986545139
 10
0.5494791666666666
 20
19.24203830295139
 10
0.5494791666666666
 20
19.126220703125
 10
0.5494791666666666
 20
18.94683159722222
 10
0.4068196614583333
 20
18.81263563368055
 10
0.2076551649305555
 20
18.81263563368055
 10
0.1073676215277778
 20
18.81263563368055
 10
0.0226236979166667
 20
18.84088812934027
 10
-0.0211656358506945
 20
18.869140625
 10
-0.0211656358506945
 20
18.869140625
 10
0.0099080403645833
 20
18.96378580729166
 10
0.0099080403645833
 20
18.96378580729166
 10
0.0480482313368056
 20
18.94117567274305
 10
0.1229112413194444
 20
18.91292317708333
 10
0.2062445746527778
 20
18.91292317708333
 10
0.3234795464409722
 20
18.91292317708333
 10
0.42376708984375
 20
18.98920355902777
 10
0.42376708984375
 20
19.11208767361111
 10
0.4223564995659723
 20
19.23074001736111
 10
0.3432549370659722
 20
19.31549750434027
 10
0.1596340603298611
 20
19.31549750434027
 10
0.1073676215277778
 20
19.31549750434027
 10
0.06640625
 20
19.30984157986111
 10
0.0325113932291667
 20
19.30560980902777
 10
0.0325113932291667
 20
19.30560980902777
 10
0.0918307834201389
 20
19.74629720052083
 10
0.0918307834201389
 20
19.74629720052083
 10
0.0918307834201389
 20
19.74629720052083
 10
0.5311211480034723
 20
19.74629720052083
 10
0.5311211480034723
 20
19.74629720052083
 10
0.5311211480034723
 20
19.74629720052083
 10
0.5311211480034723
 20
19.64177788628472
 10
0.5311211480034723
 20
19.64177788628472
 97
        0
 97
        1
330
106
 75
     2
 76
     1
 98
        1
 10
0.0
 20
0.0
450
        0
451
        0
460
0.0
461
0.0
452
        0
462
0.0
453
        0
470

  0
SPLINE
  5
108
330
FA
100
AcDbEntity
  8
0
100
AcDbSpline
210
0.0
220
0.0
230
1.0
 70
    11
 71
     3
 72
    17
 73
    13
 74
     0
 42
0.0000000001
 43
0.0000000001
 40
0.0
 40
0.0
 40
0.0
 40
0.0
 40
1.0
 40
1.0
 40
1.0
 40
2.0
 40
2.0
 40
2.0
 40
3.0
 40
3.0
 40
3.0
 40
4.0
 40
4.0
 40
4.0
 40
4.0
 10
1.049452039930555
 20
19.79573567708333
 30
0.0
 10
1.049452039930555
 20
19.79573567708333
 30
0.0
 10
1.025438096788194
 20
19.45674641927083
 30
0.0
 10
1.025438096788194
 20
19.45674641927083
 30
0.0
 10
1.025438096788194
 20
19.45674641927083
 30
0.0
 10
0.9505750868055555
 20
19.45674641927083
 30
0.0
 10
0.9505750868055555
 20
19.45674641927083
 30
0.0
 10
0.9505750868055555
 20
19.45674641927083
 30
0.0
 10
0.9265611436631944
 20
19.79573567708333
 30
0.0
 10
0.9265611436631944
 20
19.79573567708333
 30
0.0
 10
0.9265611436631944
 20
19.79573567708333
 30
0.0
 10
1.049452039930555
 20
19.79573567708333
 30
0.0
 10
1.049452039930555
 20
19.79573567708333
 30
0.0
  0
SPLINE
  5
109
330
FA
100
AcDbEntity
  8
0
100
AcDbSpline
210
0.0
220
0.0
230
1.0
 70
    11
 71
     3
 72
    17
 73
    13
 74
     0
 42
0.0000000001
 43
0.0000000001
 40
0.0
 40
0.0
 40
0.0
 40
0.0
 40
1.0
 40
1.0
 40
1.0
 40
2.0
 40
2.0
 40
2.0
 40
3.0
 40
3.0
 40
3.0
 40
4.0
 40
4.0
 40
4.0
 40
4.0
 10
0.8389892578125
 20
19.79573567708333
 30
0.0
 10
0.8389892578125
 20
19.79573567708333
 30
0.0
 10
0.8149753146701389
 20
19.45674641927083
 30
0.0
 10
0.8149753146701389
 20
19.45674641927083
 30
0.0
 10
0.8149753146701389
 20
19.45674641927083
 30
0.0
 10
0.7387017144097223
 20
19.45674641927083
 30
0.0
 10
0.7387017144097223
 20
19.45674641927083
 30
0.0
 10
0.7387017144097223
 20
19.45674641927083
 30
0.0
 10
0.7160983615451389
 20
19.79573567708333
 30
0.0
 10
0.7160983615451389
 20
19.79573567708333
 30
0.0
 10
0.7160983615451389
 20
19.79573567708333
 30
0.0
 10
0.8389892578125
 20
19.79573567708333
 30
0.0
 10
0.8389892578125
 20
19.79573567708333
 30
0.0
  0
HATCH
  5
10A
330
FA
100
AcDbEntity
  8
0
 62
    18
420
        0
440
 33554687
100
AcDbHatch
 10
0.0
 20
0.0
 30
0.0
210
0.0
220
0.0
230
1.0
  2
SOLID
 70
     1
 71
     1
 91
        2
 92
        1
 93
        1
 72
     4
 94
        3
 73
     0
 74
     0
 95
       17
 96
       13
 40
0.0
 40
0.0
 40
0.0
 40
0.0
 40
1.0
 40
1.0
 40
1.0
 40
2.0
 40
2.0
 40
2.0
 40
3.0
 40
3.0
 40
3.0
 40
4.0
 40
4.0
 40
4.0
 40
4.0
 10
1.049452039930555
 20
19.79573567708333
 10
1.049452039930555
 20
19.79573567708333
 10
1.025438096788194
 20
19.45674641927083
 10
1.025438096788194
 20
19.45674641927083
 10
1.025438096788194
 20
19.45674641927083
 10
0.9505750868055555
 20
19.45674641927083
 10
0.9505750868055555
 20
19.45674641927083
 10
0.9505750868055555
 20
19.45674641927083
 10
0.9265611436631944
 20
19.79573567708333
 10
0.9265611436631944
 20
19.79573567708333
 10
0.9265611436631944
 20
19.79573567708333
 10
1.049452039930555
 20
19.79573567708333
 10
1.049452039930555
 20
19.79573567708333
 97
        0
 97
        1
330
108
 92
        1
 93
        1
 72
     4
 94
        3
 73
     0
 74
     0
 95
       17
 96
       13
 40
0.0
 40
0.0
 40
0.0
 40
0.0
 40
1.0
 40
1.0
 40
1.0
 40
2.0
 40
2.0
 40
2.0
 40
3.0
 40
3.0
 40
3.0
 40
4.0
 40
4.0
 40
4.0
 40
4.0
 10
0.8389892578125
 20
19.79573567708333
 10
0.8389892578125
 20
19.79573567708333
 10
0.8149753146701389
 20
19.45674641927083
 10
0.8149753146701389
 20
19.45674641927083
 10
0.8149753146701389
 20
19.45674641927083
 10
0.7387017144097223
 20
19.45674641927083
 10
0.7387017144097223
 20
19.45674641927083
 10
0.7387017144097223
 20
19.45674641927083
 10
0.7160983615451389
 20
19.79573567708333
 10
0.7160983615451389
 20
19.79573567708333
 10
0.7160983615451389
 20
19.79573567708333
 10
0.8389892578125
 20
19.79573567708333
 10
0.8389892578125
 20
19.79573567708333
 97
        0
 97
        1
330
109
 75
     2
 76
     1
 98
        1
 10
0.0
 20
0.0
450
        0
451
        0
460
0.0
461
0.0
452
        0
462
0.0
453
        0
470

  0
SPLINE
  5
10B
330
FA
100
AcDbEntity
  8
0
100
AcDbSpline
210
0.0
220
0.0
230
1.0
 70
    11
 71
     3
 72
    59
 73
    55
 74
     0
 42
0.0000000001
 43
0.0000000001
 40
0.0
 40
0.0
 40
0.0
 40
0.0
 40
1.0
 40
1.0
 40
1.0
 40
2.0
 40
2.0
 40
2.0
 40
3.0
 40
3.0
 40
3.0
 40
4.0
 40
4.0
 40
4.0
 40
5.0
 40
5.0
 40
5.0
 40
6.0
 40
6.0
 40
6.0
 40
7.0
 40
7.0
 40
7.0
 40
8.0
 40
8.0
 40
8.0
 40
9.0
 40
9.0
 40
9.0
 40
10.0
 40
10.0
 40
10.0
 40
11.0
 40
11.0
 40
11.0
 40
12.0
 40
12.0
 40
12.0
 40
13.0
 40
13.0
 40
13.0
 40
14.0
 40
14.0
 40
14.0
 40
15.0
 40
15.0
 40
15.0
 40
16.0
 40
16.0
 40
16.0
 40
17.0
 40
17.0
 40
17.0
 40
18.0
 40
18.0
 40
18.0
 40
18.0
 10
1.580485026041666
 20
19.51182725694444
 30
0.0
 10
1.580485026041666
 20
19.51182725694444
 30
0.0
 10
1.67794460720486
 20
19.36492241753472
 30
0.0
 10
1.67794460720486
 20
19.36492241753472
 30
0.0
 10
1.703375922309027
 20
19.32679578993055
 30
0.0
 10
1.724555121527777
 20
19.29147677951389
 30
0.0
 10
1.747165256076388
 20
19.25333658854166
 30
0.0
 10
1.747165256076388
 20
19.25333658854166
 30
0.0
 10
1.751397026909722
 20
19.25333658854166
 30
0.0
 10
1.751397026909722
 20
19.25333658854166
 30
0.0
 10
1.773993598090277
 20
19.29429796006944
 30
0.0
 10
1.796603732638888
 20
19.32961697048611
 30
0.0
 10
1.819200303819444
 20
19.36634657118055
 30
0.0
 10
1.819200303819444
 20
19.36634657118055
 30
0.0
 10
1.915242513020833
 20
19.51182725694444
 30
0.0
 10
1.915242513020833
 20
19.51182725694444
 30
0.0
 10
1.915242513020833
 20
19.51182725694444
 30
0.0
 10
2.0494384765625
 20
19.51182725694444
 30
0.0
 10
2.0494384765625
 20
19.51182725694444
 30
0.0
 10
2.0494384765625
 20
19.51182725694444
 30
0.0
 10
1.816379123263888
 20
19.18130154079861
 30
0.0
 10
1.816379123263888
 20
19.18130154079861
 30
0.0
 10
1.816379123263888
 20
19.18130154079861
 30
0.0
 10
2.056491427951388
 20
18.82817925347222
 30
0.0
 10
2.056491427951388
 20
18.82817925347222
 30
0.0
 10
2.056491427951388
 20
18.82817925347222
 30
0.0
 10
1.915242513020833
 20
18.82817925347222
 30
0.0
 10
1.915242513020833
 20
18.82817925347222
 30
0.0
 10
1.915242513020833
 20
18.82817925347222
 30
0.0
 10
1.814954969618055
 20
18.98213704427083
 30
0.0
 10
1.814954969618055
 20
18.98213704427083
 30
0.0
 10
1.788126627604166
 20
19.02168782552083
 30
0.0
 10
1.765516493055555
 20
19.05982801649305
 30
0.0
 10
1.741509331597222
 20
19.10078938802083
 30
0.0
 10
1.741509331597222
 20
19.10078938802083
 30
0.0
 10
1.738688151041666
 20
19.10078938802083
 30
0.0
 10
1.738688151041666
 20
19.10078938802083
 30
0.0
 10
1.71609157986111
 20
19.05982801649305
 30
0.0
 10
1.692070855034722
 20
19.02309841579861
 30
0.0
 10
1.666646321614583
 20
18.98213704427083
 30
0.0
 10
1.666646321614583
 20
18.98213704427083
 30
0.0
 10
1.56777615017361
 20
18.82817925347222
 30
0.0
 10
1.56777615017361
 20
18.82817925347222
 30
0.0
 10
1.56777615017361
 20
18.82817925347222
 30
0.0
 10
1.430759006076388
 20
18.82817925347222
 30
0.0
 10
1.430759006076388
 20
18.82817925347222
 30
0.0
 10
1.430759006076388
 20
18.82817925347222
 30
0.0
 10
1.673712836371527
 20
19.17706976996527
 30
0.0
 10
1.673712836371527
 20
19.17706976996527
 30
0.0
 10
1.673712836371527
 20
19.17706976996527
 30
0.0
 10
1.442057291666666
 20
19.51182725694444
 30
0.0
 10
1.442057291666666
 20
19.51182725694444
 30
0.0
 10
1.442057291666666
 20
19.51182725694444
 30
0.0
 10
1.580485026041666
 20
19.51182725694444
 30
0.0
 10
1.580485026041666
 20
19.51182725694444
 30
0.0
  0
HATCH
  5
10C
330
FA
100
AcDbEntity
  8
0
 62
    18
420
        0
440
 33554687
100
AcDbHatch
 10
0.0
 20
0.0
 30
0.0
210
0.0
220
0.0
230
1.0
  2
SOLID
 70
     1
 71
     1
 91
        1
 92
        1
 93
        1
 72
     4
 94
        3
 73
     0
 74
     0
 95
       59
 96
       55
 40
0.0
 40
0.0
 40
0.0
 40
0.0
 40
1.0
 40
1.0
 40
1.0
 40
2.0
 40
2.0
 40
2.0
 40
3.0
 40
3.0
 40
3.0
 40
4.0
 40
4.0
 40
4.0
 40
5.0
 40
5.0
 40
5.0
 40
6.0
 40
6.0
 40
6.0
 40
7.0
 40
7.0
 40
7.0
 40
8.0
 40
8.0
 40
8.0
 40
9.0
 40
9.0
 40
9.0
 40
10.0
 40
10.0
 40
10.0
 40
11.0
 40
11.0
 40
11.0
 40
12.0
 40
12.0
 40
12.0
 40
13.0
 40
13.0
 40
13.0
 40
14.0
 40
14.0
 40
14.0
 40
15.0
 40
15.0
 40
15.0
 40
16.0
 40
16.0
 40
16.0
 40
17.0
 40
17.0
 40
17.0
 40
18.0
 40
18.0
 40
18.0
 40
18.0
 10
1.580485026041666
 20
19.51182725694444
 10
1.580485026041666
 20
19.51182725694444
 10
1.67794460720486
 20
19.36492241753472
 10
1.67794460720486
 20
19.36492241753472
 10
1.703375922309027
 20
19.32679578993055
 10
1.724555121527777
 20
19.29147677951389
 10
1.747165256076388
 20
19.25333658854166
 10
1.747165256076388
 20
19.25333658854166
 10
1.751397026909722
 20
19.25333658854166
 10
1.751397026909722
 20
19.25333658854166
 10
1.773993598090277
 20
19.29429796006944
 10
1.796603732638888
 20
19.32961697048611
 10
1.819200303819444
 20
19.36634657118055
 10
1.819200303819444
 20
19.36634657118055
 10
1.915242513020833
 20
19.51182725694444
 10
1.915242513020833
 20
19.51182725694444
 10
1.915242513020833
 20
19.51182725694444
 10
2.0494384765625
 20
19.51182725694444
 10
2.0494384765625
 20
19.51182725694444
 10
2.0494384765625
 20
19.51182725694444
 10
1.816379123263888
 20
19.18130154079861
 10
1.816379123263888
 20
19.18130154079861
 10
1.816379123263888
 20
19.18130154079861
 10
2.056491427951388
 20
18.82817925347222
 10
2.056491427951388
 20
18.82817925347222
 10
2.056491427951388
 20
18.82817925347222
 10
1.915242513020833
 20
18.82817925347222
 10
1.915242513020833
 20
18.82817925347222
 10
1.915242513020833
 20
18.82817925347222
 10
1.814954969618055
 20
18.98213704427083
 10
1.814954969618055
 20
18.98213704427083
 10
1.788126627604166
 20
19.02168782552083
 10
1.765516493055555
 20
19.05982801649305
 10
1.741509331597222
 20
19.10078938802083
 10
1.741509331597222
 20
19.10078938802083
 10
1.738688151041666
 20
19.10078938802083
 10
1.738688151041666
 20
19.10078938802083
 10
1.71609157986111
 20
19.05982801649305
 10
1.692070855034722
 20
19.02309841579861
 10
1.666646321614583
 20
18.98213704427083
 10
1.666646321614583
 20
18.98213704427083
 10
1.56777615017361
 20
18.82817925347222
 10
1.56777615017361
 20
18.82817925347222
 10
1.56777615017361
 20
18.82817925347222
 10
1.430759006076388
 20
18.82817925347222
 10
1.430759006076388
 20
18.82817925347222
 10
1.430759006076388
 20
18.82817925347222
 10
1.673712836371527
 20
19.17706976996527
 10
1.673712836371527
 20
19.17706976996527
 10
1.673712836371527
 20
19.17706976996527
 10
1.442057291666666
 20
19.51182725694444
 10
1.442057291666666
 20
19.51182725694444
 10
1.442057291666666
 20
19.51182725694444
 10
1.580485026041666
 20
19.51182725694444
 10
1.580485026041666
 20
19.51182725694444
 97
        0
 97
        1
330
10B
 75
     2
 76
     1
 98
        1
 10
0.0
 20
0.0
450
        0
451
        0
460
0.0
461
0.0
452
        0
462
0.0
453
        0
470

  0
SPLINE
  5
10D
330
FA
100
AcDbEntity
  8
0
100
AcDbSpline
210
0.0
220
0.0
230
1.0
 70
    11
 71
     3
 72
    29
 73
    25
 74
     0
 42
0.0000000001
 43
0.0000000001
 40
0.0
 40
0.0
 40
0.0
 40
0.0
 40
1.0
 40
1.0
 40
1.0
 40
2.0
 40
2.0
 40
2.0
 40
3.0
 40
3.0
 40
3.0
 40
4.0
 40
4.0
 40
4.0
 40
5.0
 40
5.0
 40
5.0
 40
6.0
 40
6.0
 40
6.0
 40
7.0
 40
7.0
 40
7.0
 40
8.0
 40
8.0
 40
8.0
 40
8.0
 10
2.7061767578125
 20
19.63047960069444
 30
0.0
 10
2.7061767578125
 20
19.63047960069444
 30
0.0
 10
2.703355577256944
 20
19.63047960069444
 30
0.0
 10
2.703355577256944
 20
19.63047960069444
 30
0.0
 10
2.703355577256944
 20
19.63047960069444
 30
0.0
 10
2.543741861979166
 20
19.5443115234375
 30
0.0
 10
2.543741861979166
 20
19.5443115234375
 30
0.0
 10
2.543741861979166
 20
19.5443115234375
 30
0.0
 10
2.519734700520833
 20
19.63895670572916
 30
0.0
 10
2.519734700520833
 20
19.63895670572916
 30
0.0
 10
2.519734700520833
 20
19.63895670572916
 30
0.0
 10
2.720309787326388
 20
19.74629720052083
 30
0.0
 10
2.720309787326388
 20
19.74629720052083
 30
0.0
 10
2.720309787326388
 20
19.74629720052083
 30
0.0
 10
2.826239691840277
 20
19.74629720052083
 30
0.0
 10
2.826239691840277
 20
19.74629720052083
 30
0.0
 10
2.826239691840277
 20
19.74629720052083
 30
0.0
 10
2.826239691840277
 20
18.82817925347222
 30
0.0
 10
2.826239691840277
 20
18.82817925347222
 30
0.0
 10
2.826239691840277
 20
18.82817925347222
 30
0.0
 10
2.7061767578125
 20
18.82817925347222
 30
0.0
 10
2.7061767578125
 20
18.82817925347222
 30
0.0
 10
2.7061767578125
 20
18.82817925347222
 30
0.0
 10
2.7061767578125
 20
19.63047960069444
 30
0.0
 10
2.7061767578125
 20
19.63047960069444
 30
0.0
  0
HATCH
  5
10E
330
FA
100
AcDbEntity
  8
0
 62
    18
420
        0
440
 33554687
100
AcDbHatch
 10
0.0
 20
0.0
 30
0.0
210
0.0
220
0.0
230
1.0
  2
SOLID
 70
     1
 71
     1
 91
        1
 92
        1
 93
        1
 72
     4
 94
        3
 73
     0
 74
     0
 95
       29
 96
       25
 40
0.0
 40
0.0
 40
0.0
 40
0.0
 40
1.0
 40
1.0
 40
1.0
 40
2.0
 40
2.0
 40
2.0
 40
3.0
 40
3.0
 40
3.0
 40
4.0
 40
4.0
 40
4.0
 40
5.0
 40
5.0
 40
5.0
 40
6.0
 40
6.0
 40
6.0
 40
7.0
 40
7.0
 40
7.0
 40
8.0
 40
8.0
 40
8.0
 40
8.0
 10
2.7061767578125
 20
19.63047960069444
 10
2.7061767578125
 20
19.63047960069444
 10
2.703355577256944
 20
19.63047960069444
 10
2.703355577256944
 20
19.63047960069444
 10
2.703355577256944
 20
19.63047960069444
 10
2.543741861979166
 20
19.5443115234375
 10
2.543741861979166
 20
19.5443115234375
 10
2.543741861979166
 20
19.5443115234375
 10
2.519734700520833
 20
19.63895670572916
 10
2.519734700520833
 20
19.63895670572916
 10
2.519734700520833
 20
19.63895670572916
 10
2.720309787326388
 20
19.74629720052083
 10
2.720309787326388
 20
19.74629720052083
 10
2.720309787326388
 20
19.74629720052083
 10
2.826239691840277
 20
19.74629720052083
 10
2.826239691840277
 20
19.74629720052083
 10
2.826239691840277
 20
19.74629720052083
 10
2.826239691840277
 20
18.82817925347222
 10
2.826239691840277
 20
18.82817925347222
 10
2.826239691840277
 20
18.82817925347222
 10
2.7061767578125
 20
18.82817925347222
 10
2.7061767578125
 20
18.82817925347222
 10
2.7061767578125
 20
18.82817925347222
 10
2.7061767578125
 20
19.63047960069444
 10
2.7061767578125
 20
19.63047960069444
 97
        0
 97
        1
330
10D
 75
     2
 76
     1
 98
        1
 10
0.0
 20
0.0
450
        0
451
        0
460
0.0
461
0.0
452
        0
462
0.0
453
        0
470

  0
SPLINE
  5
10F
330
FA
100
AcDbEntity
  8
0
100
AcDbSpline
210
0.0
220
0.0
230
1.0
 70
    11
 71
     3
 72
    29
 73
    25
 74
     0
 42
0.0000000001
 43
0.0000000001
 40
0.0
 40
0.0
 40
0.0
 40
0.0
 40
1.0
 40
1.0
 40
1.0
 40
2.0
 40
2.0
 40
2.0
 40
3.0
 40
3.0
 40
3.0
 40
4.0
 40
4.0
 40
4.0
 40
5.0
 40
5.0
 40
5.0
 40
6.0
 40
6.0
 40
6.0
 40
7.0
 40
7.0
 40
7.0
 40
8.0
 40
8.0
 40
8.0
 40
8.0
 10
3.757025824652777
 20
19.74629720052083
 30
0.0
 10
3.757025824652777
 20
19.74629720052083
 30
0.0
 10
3.757025824652777
 20
19.66437445746527
 30
0.0
 10
3.757025824652777
 20
19.66437445746527
 30
0.0
 10
3.757025824652777
 20
19.66437445746527
 30
0.0
 10
3.357286241319444
 20
18.82817925347222
 30
0.0
 10
3.357286241319444
 20
18.82817925347222
 30
0.0
 10
3.357286241319444
 20
18.82817925347222
 30
0.0
 10
3.228746202256944
 20
18.82817925347222
 30
0.0
 10
3.228746202256944
 20
18.82817925347222
 30
0.0
 10
3.228746202256944
 20
18.82817925347222
 30
0.0
 10
3.6270751953125
 20
19.64036729600694
 30
0.0
 10
3.6270751953125
 20
19.64036729600694
 30
0.0
 10
3.6270751953125
 20
19.64036729600694
 30
0.0
 10
3.6270751953125
 20
19.6431884765625
 30
0.0
 10
3.6270751953125
 20
19.6431884765625
 30
0.0
 10
3.6270751953125
 20
19.6431884765625
 30
0.0
 10
3.177897135416666
 20
19.6431884765625
 30
0.0
 10
3.177897135416666
 20
19.6431884765625
 30
0.0
 10
3.177897135416666
 20
19.6431884765625
 30
0.0
 10
3.177897135416666
 20
19.74629720052083
 30
0.0
 10
3.177897135416666
 20
19.74629720052083
 30
0.0
 10
3.177897135416666
 20
19.74629720052083
 30
0.0
 10
3.757025824652777
 20
19.74629720052083
 30
0.0
 10
3.757025824652777
 20
19.74629720052083
 30
0.0
  0
HATCH
  5
110
330
FA
100
AcDbEntity
  8
0
 62
    18
420
        0
440
 33554687
100
AcDbHatch
 10
0.0
 20
0.0
 30
0.0
210
0.0
220
0.0
230
1.0
  2
SOLID
 70
     1
 71
     1
 91
        1
 92
        1
 93
        1
 72
     4
 94
        3
 73
     0
 74
     0
 95
       29
 96
       25
 40
0.0
 40
0.0
 40
0.0
 40
0.0
 40
1.0
 40
1.0
 40
1.0
 40
2.0
 40
2.0
 40
2.0
 40
3.0
 40
3.0
 40
3.0
 40
4.0
 40
4.0
 40
4.0
 40
5.0
 40
5.0
 40
5.0
 40
6.0
 40
6.0
 40
6.0
 40
7.0
 40
7.0
 40
7.0
 40
8.0
 40
8.0
 40
8.0
 40
8.0
 10
3.757025824652777
 20
19.74629720052083
 10
3.757025824652777
 20
19.74629720052083
 10
3.757025824652777
 20
19.66437445746527
 10
3.757025824652777
 20
19.66437445746527
 10
3.757025824652777
 20
19.66437445746527
 10
3.357286241319444
 20
18.82817925347222
 10
3.357286241319444
 20
18.82817925347222
 10
3.357286241319444
 20
18.82817925347222
 10
3.228746202256944
 20
18.82817925347222
 10
3.228746202256944
 20
18.82817925347222
 10
3.228746202256944
 20
18.82817925347222
 10
3.6270751953125
 20
19.64036729600694
 10
3.6270751953125
 20
19.64036729600694
 10
3.6270751953125
 20
19.64036729600694
 10
3.6270751953125
 20
19.6431884765625
 10
3.6270751953125
 20
19.6431884765625
 10
3.6270751953125
 20
19.6431884765625
 10
3.177897135416666
 20
19.6431884765625
 10
3.177897135416666
 20
19.6431884765625
 10
3.177897135416666
 20
19.6431884765625
 10
3.177897135416666
 20
19.74629720052083
 10
3.177897135416666
 20
19.74629720052083
 10
3.177897135416666
 20
19.74629720052083
 10
3.757025824652777
 20
19.74629720052083
 10
3.757025824652777
 20
19.74629720052083
 97
        0
 97
        1
330
10F
 75
     2
 76
     1
 98
        1
 10
0.0
 20
0.0
450
        0
451
        0
460
0.0
461
0.0
452
        0
462
0.0
453
        0
470

  0
SPLINE
  5
111
330
FA
100
AcDbEntity
  8
0
100
AcDbSpline
210
0.0
220
0.0
230
1.0
 70
    11
 71
     3
 72
    17
 73
    13
 74
     0
 42
0.0000000001
 43
0.0000000001
 40
0.0
 40
0.0
 40
0.0
 40
0.0
 40
1.0
 40
1.0
 40
1.0
 40
2.0
 40
2.0
 40
2.0
 40
3.0
 40
3.0
 40
3.0
 40
4.0
 40
4.0
 40
4.0
 40
4.0
 10
4.22732204861111
 20
19.79573567708333
 30
0.0
 10
4.22732204861111
 20
19.79573567708333
 30
0.0
 10
4.203314887152777
 20
19.45674641927083
 30
0.0
 10
4.203314887152777
 20
19.45674641927083
 30
0.0
 10
4.203314887152777
 20
19.45674641927083
 30
0.0
 10
4.128458658854166
 20
19.45674641927083
 30
0.0
 10
4.128458658854166
 20
19.45674641927083
 30
0.0
 10
4.128458658854166
 20
19.45674641927083
 30
0.0
 10
4.104437934027777
 20
19.79573567708333
 30
0.0
 10
4.104437934027777
 20
19.79573567708333
 30
0.0
 10
4.104437934027777
 20
19.79573567708333
 30
0.0
 10
4.22732204861111
 20
19.79573567708333
 30
0.0
 10
4.22732204861111
 20
19.79573567708333
 30
0.0
  0
SPLINE
  5
112
330
FA
100
AcDbEntity
  8
0
100
AcDbSpline
210
0.0
220
0.0
230
1.0
 70
    11
 71
     3
 72
    17
 73
    13
 74
     0
 42
0.0000000001
 43
0.0000000001
 40
0.0
 40
0.0
 40
0.0
 40
0.0
 40
1.0
 40
1.0
 40
1.0
 40
2.0
 40
2.0
 40
2.0
 40
3.0
 40
3.0
 40
3.0
 40
4.0
 40
4.0
 40
4.0
 40
4.0
 10
4.016859266493055
 20
19.79573567708333
 30
0.0
 10
4.016859266493055
 20
19.79573567708333
 30
0.0
 10
3.992852105034721
 20
19.45674641927083
 30
0.0
 10
3.992852105034721
 20
19.45674641927083
 30
0.0
 10
3.992852105034721
 20
19.45674641927083
 30
0.0
 10
3.916571723090277
 20
19.45674641927083
 30
0.0
 10
3.916571723090277
 20
19.45674641927083
 30
0.0
 10
3.916571723090277
 20
19.45674641927083
 30
0.0
 10
3.893975151909721
 20
19.79573567708333
 30
0.0
 10
3.893975151909721
 20
19.79573567708333
 30
0.0
 10
3.893975151909721
 20
19.79573567708333
 30
0.0
 10
4.016859266493055
 20
19.79573567708333
 30
0.0
 10
4.016859266493055
 20
19.79573567708333
 30
0.0
  0
HATCH
  5
113
330
FA
100
AcDbEntity
  8
0
 62
    18
420
        0
440
 33554687
100
AcDbHatch
 10
0.0
 20
0.0
 30
0.0
210
0.0
220
0.0
230
1.0
  2
SOLID
 70
     1
 71
     1
 91
        2
 92
        1
 93
        1
 72
     4
 94
        3
 73
     0
 74
     0
 95
       17
 96
       13
 40
0.0
 40
0.0
 40
0.0
 40
0.0
 40
1.0
 40
1.0
 40
1.0
 40
2.0
 40
2.0
 40
2.0
 40
3.0
 40
3.0
 40
3.0
 40
4.0
 40
4.0
 40
4.0
 40
4.0
 10
4.22732204861111
 20
19.79573567708333
 10
4.22732204861111
 20
19.79573567708333
 10
4.203314887152777
 20
19.45674641927083
 10
4.203314887152777
 20
19.45674641927083
 10
4.203314887152777
 20
19.45674641927083
 10
4.128458658854166
 20
19.45674641927083
 10
4.128458658854166
 20
19.45674641927083
 10
4.128458658854166
 20
19.45674641927083
 10
4.104437934027777
 20
19.79573567708333
 10
4.104437934027777
 20
19.79573567708333
 10
4.104437934027777
 20
19.79573567708333
 10
4.22732204861111
 20
19.79573567708333
 10
4.22732204861111
 20
19.79573567708333
 97
        0
 97
        1
330
111
 92
        1
 93
        1
 72
     4
 94
        3
 73
     0
 74
     0
 95
       17
 96
       13
 40
0.0
 40
0.0
 40
0.0
 40
0.0
 40
1.0
 40
1.0
 40
1.0
 40
2.0
 40
2.0
 40
2.0
 40
3.0
 40
3.0
 40
3.0
 40
4.0
 40
4.0
 40
4.0
 40
4.0
 10
4.016859266493055
 20
19.79573567708333
 10
4.016859266493055
 20
19.79573567708333
 10
3.992852105034721
 20
19.45674641927083
 10
3.992852105034721
 20
19.45674641927083
 10
3.992852105034721
 20
19.45674641927083
 10
3.916571723090277
 20
19.45674641927083
 10
3.916571723090277
 20
19.45674641927083
 10
3.916571723090277
 20
19.45674641927083
 10
3.893975151909721
 20
19.79573567708333
 10
3.893975151909721
 20
19.79573567708333
 10
3.893975151909721
 20
19.79573567708333
 10
4.016859266493055
 20
19.79573567708333
 10
4.016859266493055
 20
19.79573567708333
 97
        0
 97
        1
330
112
 75
     2
 76
     1
 98
        1
 10
0.0
 20
0.0
450
        0
451
        0
460
0.0
461
0.0
452
        0
462
0.0
453
        0
470

  0
ENDBLK
  5
FD
330
FA
100
AcDbEntity
  8
0
100
AcDbBlockEnd
  0
ENDSEC
  0
SECTION
  2
ENTITIES
  0
LWPOLYLINE
  5
79
330
70
100
AcDbEntity
  8
LAYER_1
 62
   250
420
  3355443
370
    25
100
AcDbPolyline
 90
      192
 70
     1
 43
0.0
 10
22.55187498783744
 20
-11.01402031052736
 10
22.40633211164246
 20
-11.01402031052741
 10
21.98633695462266
 20
-11.01402031052736
 10
21.31683972412573
 20
-11.01402031052736
 10
20.4227906274994
 20
-11.01402031052741
 10
19.32913987209136
 20
-11.01402031052741
 10
18.06083766524936
 20
-11.01402031052736
 10
16.64283421432108
 20
-11.01402031052736
 10
15.10007972665426
 20
-11.01402031052741
 10
13.45752440959654
 20
-11.01402031052736
 10
11.74011847049574
 20
-11.01402031052736
 10
9.972812116699515
 20
-11.01402031052736
 10
8.180555555555555
 20
-11.01402031052736
 10
6.38829899441162
 20
-11.01402031052736
 10
4.620992640615364
 20
-11.01402031052736
 10
2.903586701514566
 20
-11.01402031052736
 10
1.261031384456878
 20
-11.01402031052736
 10
-0.2817231032099446
 20
-11.01402031052736
 10
-1.699726554138224
 20
-11.01402031052736
 10
-2.968028760980233
 20
-11.01402031052736
 10
-4.061679516388254
 20
-11.01402031052736
 10
-4.955728613014596
 20
-11.01402031052736
 10
-5.625225843511517
 20
-11.01402031052736
 10
-6.045221000531328
 20
-11.01402031052736
 10
-6.190763876726324
 20
-11.01402031052736
 10
-6.224788087096852
 20
-11.01289136743884
 10
-6.258216869275088
 20
-11.00955385237992
 10
-6.290974441491091
 20
-11.00408173666058
 10
-6.322985021974924
 20
-10.99654899159087
 10
-6.354172828956658
 20
-10.98702958848083
 10
-6.384462080666391
 20
-10.97559749864045
 10
-6.413776995334147
 20
-10.96232669337976
 10
-6.442041791190035
 20
-10.94729114400868
 10
-6.469180686464116
 20
-10.93056482183732
 10
-6.49511789938645
 20
-10.91222169817567
 10
-6.51977764818711
 20
-10.89233574433375
 10
-6.543084151096195
 20
-10.87098093162154
 10
-6.564961626343713
 20
-10.84823123134914
 10
-6.585334292159775
 20
-10.82416061482644
 10
-6.604126366774468
 20
-10.79884305336355
 10
-6.621262068417826
 20
-10.7723525182704
 10
-6.63666561531996
 20
-10.74476298085705
 10
-6.650261225710904
 20
-10.71614841243359
 10
-6.661973117820744
 20
-10.68658278430992
 10
-6.671725509879529
 20
-10.65614006779608
 10
-6.679442620117368
 20
-10.6248942342021
 10
-6.685048666764297
 20
-10.59291925483795
 10
-6.688467868050413
 20
-10.56028910101375
 10
-6.689624442205765
 20
-10.52707774403939
 10
-6.689624442205765
 20
-10.43584848764627
 10
-6.689624442205765
 20
-10.17258691919763
 10
-6.689624442205765
 20
-9.752932339789341
 10
-6.689624442205765
 20
-9.192524050517425
 10
-6.689624442205765
 20
-8.5070013524778
 10
-6.689624442205765
 20
-7.712003546766456
 10
-6.689624442205765
 20
-6.823169934479361
 10
-6.689624442205765
 20
-5.856139816712432
 10
-6.689624442205765
 20
-4.826552494561711
 10
-6.689624442205765
 20
-3.750047269123089
 10
-6.689624442205765
 20
-2.642263441492534
 10
-6.689624442205765
 20
-1.518840312766011
 10
-6.689624442205765
 20
-0.3954171840394893
 10
-6.689624442205765
 20
0.712366643591041
 10
-6.689624442205765
 20
1.788871869029713
 10
-6.689624442205765
 20
2.818459191180409
 10
-6.689624442205765
 20
3.785489308947312
 10
-6.689624442205765
 20
4.674322921234432
 10
-6.689624442205765
 20
5.469320726945776
 10
-6.689624442205765
 20
6.154843424985377
 10
-6.689624442205765
 20
6.715251714257306
 10
-6.689624442205765
 20
7.134906293665608
 10
-6.689624442205765
 20
7.398167862114278
 10
-6.689624442205765
 20
7.489397118507389
 10
-6.688467868050413
 20
7.522608475481724
 10
-6.685048666764297
 20
7.555238629305929
 10
-6.679442620117368
 20
7.587213608670039
 10
-6.671725509879542
 20
7.618459442264009
 10
-6.661973117820744
 20
7.648902158777836
 10
-6.650261225710917
 20
7.678467786901491
 10
-6.636665615319972
 20
7.707082355324991
 10
-6.621262068417851
 20
7.734671892738295
 10
-6.604126366774494
 20
7.76116242783141
 10
-6.5853342921598
 20
7.786479989294307
 10
-6.564961626343738
 20
7.810550605816994
 10
-6.543084151096207
 20
7.833300306089427
 10
-6.519777648187148
 20
7.854655118801613
 10
-6.495117899386488
 20
7.874541072643523
 10
-6.469180686464166
 20
7.892884196305177
 10
-6.442041791190098
 20
7.909610518476521
 10
-6.41377699533421
 20
7.924646067847573
 10
-6.384462080666454
 20
7.937916873108305
 10
-6.354172828956721
 20
7.949348962948697
 10
-6.322985021975
 20
7.958868366058759
 10
-6.290974441491167
 20
7.966401111128448
 10
-6.258216869275176
 20
7.971873226847757
 10
-6.22478808709694
 20
7.975210741906695
 10
-6.190763876726413
 20
7.976339684995233
 10
-6.045221000531467
 20
7.97633968499522
 10
-5.625225843511682
 20
7.97633968499522
 10
-4.955728613014785
 20
7.97633968499522
 10
-4.061679516388443
 20
7.97633968499522
 10
-2.968028760980435
 20
7.97633968499522
 10
-1.699726554138426
 20
7.97633968499522
 10
-0.2817231032101466
 20
7.97633968499522
 10
1.261031384456689
 20
7.97633968499522
 10
2.903586701514402
 20
7.97633968499522
 10
4.620992640615238
 20
7.97633968499522
 10
6.388298994411494
 20
7.97633968499522
 10
8.180555555555454
 20
7.97633968499522
 10
9.972812116699438
 20
7.97633968499522
 10
11.74011847049572
 20
7.97633968499522
 10
13.45752440959654
 20
7.97633968499522
 10
15.10007972665426
 20
7.97633968499522
 10
16.64283421432113
 20
7.97633968499522
 10
18.06083766524944
 20
7.97633968499522
 10
19.32913987209147
 20
7.97633968499522
 10
20.4227906274995
 20
7.97633968499522
 10
21.31683972412583
 20
7.97633968499522
 10
21.9863369546228
 20
7.97633968499522
 10
22.40633211164261
 20
7.97633968499522
 10
22.55187498783759
 20
7.97633968499522
 10
22.5858991982081
 20
7.975210741906695
 10
22.61932798038631
 20
7.971873226847757
 10
22.65208555260231
 20
7.966401111128448
 10
22.68409613308616
 20
7.958868366058746
 10
22.71528394006789
 20
7.949348962948697
 10
22.74557319177759
 20
7.937916873108305
 10
22.77488810644536
 20
7.924646067847573
 10
22.80315290230121
 20
7.909610518476521
 10
22.8302917975753
 20
7.892884196305177
 10
22.85622901049762
 20
7.874541072643523
 10
22.88088875929826
 20
7.854655118801613
 10
22.90419526220732
 20
7.833300306089427
 10
22.92607273745483
 20
7.810550605816994
 10
22.94644540327093
 20
7.786479989294307
 10
22.96523747788562
 20
7.76116242783141
 10
22.98237317952898
 20
7.734671892738295
 10
22.99777672643108
 20
7.707082355324991
 10
23.01137233682203
 20
7.678467786901491
 10
23.02308422893182
 20
7.648902158777836
 10
23.03283662099064
 20
7.618459442264009
 10
23.0405537312285
 20
7.587213608670026
 10
23.04615977787539
 20
7.555238629305929
 10
23.04957897916152
 20
7.52260847548171
 10
23.05073555331688
 20
7.489397118507402
 10
23.05073555331688
 20
7.398167862114253
 10
23.05073555331688
 20
7.134906293665557
 10
23.05073555331688
 20
6.715251714257242
 10
23.05073555331685
 20
6.154843424985275
 10
23.05073555331688
 20
5.469320726945625
 10
23.05073555331688
 20
4.67432292123423
 10
23.05073555331688
 20
3.785489308947135
 10
23.05073555331688
 20
2.818459191180206
 10
23.05073555331688
 20
1.78887186902941
 10
23.05073555331688
 20
0.7123666435907883
 10
23.05073555331688
 20
-0.3954171840397925
 10
23.05073555331688
 20
-1.518840312766315
 10
23.05073555331688
 20
-2.642263441492837
 10
23.05073555331688
 20
-3.750047269123392
 10
23.05073555331688
 20
-4.826552494562014
 10
23.05073555331688
 20
-5.856139816712761
 10
23.05073555331688
 20
-6.823169934479639
 10
23.05073555331688
 20
-7.712003546766734
 10
23.05073555331688
 20
-8.507001352478052
 10
23.05073555331688
 20
-9.192524050517627
 10
23.05073555331688
 20
-9.752932339789543
 10
23.05073555331688
 20
-10.17258691919775
 10
23.05073555331688
 20
-10.43584848764638
 10
23.05073555331688
 20
-10.52707774403941
 10
23.0495789791615
 20
-10.56028910101375
 10
23.04615977787539
 20
-10.59291925483795
 10
23.04055373122845
 20
-10.62489423420207
 10
23.03283662099062
 20
-10.65614006779603
 10
23.02308422893182
 20
-10.68658278430987
 10
23.01137233682198
 20
-10.71614841243356
 10
22.99777672643106
 20
-10.744762980857
 10
22.98237317952892
 20
-10.77235251827035
 10
22.96523747788554
 20
-10.7988430533635
 10
22.94644540327087
 20
-10.82416061482639
 10
22.92607273745476
 20
-10.84823123134907
 10
22.90419526220724
 20
-10.87098093162151
 10
22.88088875929816
 20
-10.8923357443337
 10
22.85622901049752
 20
-10.91222169817562
 10
22.83029179757518
 20
-10.93056482183728
 10
22.80315290230111
 20
-10.94729114400868
 10
22.77488810644521
 20
-10.96232669337971
 10
22.74557319177747
 20
-10.97559749864045
 10
22.71528394006774
 20
-10.98702958848083
 10
22.68409613308598
 20
-10.99654899159087
 10
22.65208555260215
 20
-11.00408173666058
 10
22.61932798038616
 20
-11.00955385237992
 10
22.58589919820795
 20
-11.01289136743884
  0
LWPOLYLINE
  5
7A
330
70
100
AcDbEntity
  8
LAYER_1
 62
     1
420
 16711680
370
    25
100
AcDbPolyline
 90
      192
 70
     1
 43
0.0
 10
21.55536571954604
 20
-10.01401381616357
 10
21.41991480642694
 20
-10.01401381616362
 10
21.02904217142603
 20
-10.01401381616357
 10
20.40596797107812
 20
-10.01401381616357
 10
19.57391236191782
 20
-10.01401381616362
 10
18.55609550047989
 20
-10.01401381616362
 10
17.37573754329901
 20
-10.01401381616357
 10
16.0560586469099
 20
-10.01401381616357
 10
14.62027896784724
 20
-10.01401381616362
 10
13.09161866264581
 20
-10.01401381616357
 10
11.4932978878402
 20
-10.01401381616357
 10
9.848536799965257
 20
-10.01401381616357
 10
8.180555555555555
 20
-10.01401381616357
 10
6.512574311145852
 20
-10.01401381616357
 10
4.867813223270887
 20
-10.01401381616357
 10
3.269492448465295
 20
-10.01401381616357
 10
1.740832143263838
 20
-10.01401381616357
 10
0.3050524642012027
 20
-10.01401381616357
 10
-1.014626432187899
 20
-10.01401381616357
 10
-2.194984389368781
 20
-10.01401381616357
 10
-3.212801250806705
 20
-10.01401381616357
 10
-4.044856859966986
 20
-10.01401381616357
 10
-4.667931060314938
 20
-10.01401381616357
 10
-5.05880369531581
 20
-10.01401381616357
 10
-5.194254608434928
 20
-10.01401381616357
 10
-5.228040294528669
 20
-10.01288836018317
 10
-5.261234726636581
 20
-10.00956115412562
 10
-5.293762654251369
 20
-10.00410594081644
 10
-5.325548826865731
 20
-9.996596463081232
 10
-5.356517993972399
 20
-9.987106463745551
 10
-5.386594905064081
 20
-9.975709685634884
 10
-5.415704309633459
 20
-9.962479871574865
 10
-5.443770957173303
 20
-9.947490764390977
 10
-5.47071959717626
 20
-9.930816106908752
 10
-5.496474979135086
 20
-9.912529641953849
 10
-5.52096185254249
 20
-9.892705112351752
 10
-5.544104966891154
 20
-9.871416260927995
 10
-5.565829071673824
 20
-9.848736830508135
 10
-5.586058916383194
 20
-9.824740563917758
 10
-5.60471925051196
 20
-9.799501203982369
 10
-5.621734823552856
 20
-9.773092493527579
 10
-5.6370303849986
 20
-9.745588175378845
 10
-5.650530684341888
 20
-9.717061992361802
 10
-5.662160471075442
 20
-9.687587687301958
 10
-5.671844494691968
 20
-9.657239003024894
 10
-5.679507504684162
 20
-9.626089682356122
 10
-5.685074250544769
 20
-9.594213468121198
 10
-5.688469481766446
 20
-9.561684103145706
 10
-5.689617947841977
 20
-9.528575330255154
 10
-5.689617947841977
 20
-9.447458222149785
 10
-5.689617947841977
 20
-9.21337742447435
 10
-5.689617947841977
 20
-8.840238727189671
 10
-5.689617947841977
 20
-8.341947920256794
 10
-5.689617947841977
 20
-7.732410793636518
 10
-5.689617947841977
 20
-7.025533137289786
 10
-5.689617947841977
 20
-6.235220741177625
 10
-5.689617947841977
 20
-5.375379395260854
 10
-5.689617947841977
 20
-4.459914889500345
 10
-5.689617947841977
 20
-3.502733013857146
 10
-5.689617947841977
 20
-2.517739558292078
 10
-5.689617947841977
 20
-1.518840312766087
 10
-5.689617947841977
 20
-0.5199410672400973
 10
-5.689617947841977
 20
0.4650523883249713
 10
-5.689617947841977
 20
1.422234263968195
 10
-5.689617947841977
 20
2.337698769728679
 10
-5.689617947841977
 20
3.197540115645425
 10
-5.689617947841977
 20
3.987852511757637
 10
-5.689617947841977
 20
4.694730168104367
 10
-5.689617947841977
 20
5.304267294724594
 10
-5.689617947841977
 20
5.80255810165752
 10
-5.689617947841977
 20
6.175696798942175
 10
-5.689617947841977
 20
6.409777596617648
 10
-5.689617947841977
 20
6.490894704723018
 10
-5.688469481766446
 20
6.524003477613556
 10
-5.685074250544769
 20
6.556532842589048
 10
-5.679507504684162
 20
6.588409056823959
 10
-5.671844494691968
 20
6.619558377492731
 10
-5.662160471075442
 20
6.649907061769807
 10
-5.650530684341888
 20
6.679381366829639
 10
-5.6370303849986
 20
6.707907549846695
 10
-5.621734823552856
 20
6.735411867995404
 10
-5.60471925051196
 20
6.761820578450219
 10
-5.586058916383194
 20
6.787059938385596
 10
-5.565829071673824
 20
6.811056204975986
 10
-5.544104966891154
 20
6.833735635395846
 10
-5.52096185254249
 20
6.85502448681959
 10
-5.496474979135086
 20
6.874849016421712
 10
-5.470719597176272
 20
6.893135481376626
 10
-5.443770957173303
 20
6.909810138858802
 10
-5.415704309633459
 20
6.92479924604269
 10
-5.386594905064081
 20
6.938029060102735
 10
-5.356517993972399
 20
6.949425838213364
 10
-5.325548826865744
 20
6.958915837549081
 10
-5.293762654251382
 20
6.966425315284292
 10
-5.261234726636581
 20
6.971880528593449
 10
-5.228040294528682
 20
6.975207734651032
 10
-5.194254608434928
 20
6.976333190631445
 10
-5.05880369531586
 20
6.976333190631432
 10
-4.667931060315001
 20
6.976333190631432
 10
-4.044856859967087
 20
6.976333190631432
 10
-3.212801250806819
 20
6.976333190631432
 10
-2.194984389368907
 20
6.976333190631432
 10
-1.014626432188038
 20
6.976333190631432
 10
0.3050524642010512
 20
6.976333190631432
 10
1.740832143263686
 20
6.976333190631432
 10
3.269492448465156
 20
6.976333190631432
 10
4.86781322327076
 20
6.976333190631432
 10
6.512574311145726
 20
6.976333190631432
 10
8.180555555555429
 20
6.976333190631432
 10
9.848536799965156
 20
6.976333190631432
 10
11.49329788784012
 20
6.976333190631432
 10
13.09161866264574
 20
6.976333190631432
 10
14.6202789678472
 20
6.976333190631432
 10
16.05605864690986
 20
6.976333190631432
 10
17.37573754329896
 20
6.976333190631432
 10
18.55609550047989
 20
6.976333190631432
 10
19.57391236191779
 20
6.976333190631432
 10
20.40596797107812
 20
6.976333190631432
 10
21.02904217142605
 20
6.976333190631432
 10
21.41991480642694
 20
6.976333190631432
 10
21.55536571954604
 20
6.976333190631432
 10
21.58915140563977
 20
6.975207734651032
 10
21.62234583774769
 20
6.971880528593449
 10
21.65487376536246
 20
6.966425315284292
 10
21.68665993797683
 20
6.958915837549069
 10
21.71762910508351
 20
6.949425838213364
 10
21.74770601617517
 20
6.938029060102735
 10
21.77681542074459
 20
6.92479924604269
 10
21.80488206828439
 20
6.909810138858802
 10
21.83183070828737
 20
6.893135481376626
 10
21.85758609024619
 20
6.874849016421712
 10
21.8820729636536
 20
6.85502448681959
 10
21.90521607800226
 20
6.833735635395846
 10
21.92694018278495
 20
6.811056204975986
 10
21.94717002749429
 20
6.787059938385596
 10
21.96583036162307
 20
6.761820578450232
 10
21.98284593466395
 20
6.735411867995404
 10
21.99814149610968
 20
6.707907549846695
 10
22.01164179545301
 20
6.679381366829639
 10
22.02327158218653
 20
6.649907061769807
 10
22.03295560580305
 20
6.619558377492706
 10
22.04061861579528
 20
6.588409056823959
 10
22.04618536165584
 20
6.556532842589035
 10
22.04958059287757
 20
6.524003477613556
 10
22.05072905895309
 20
6.490894704723018
 10
22.05072905895309
 20
6.409777596617622
 10
22.05072905895309
 20
6.175696798942125
 10
22.05072905895309
 20
5.802558101657445
 10
22.05072905895306
 20
5.304267294724493
 10
22.05072905895309
 20
4.694730168104215
 10
22.05072905895309
 20
3.987852511757485
 10
22.05072905895309
 20
3.197540115645273
 10
22.05072905895309
 20
2.337698769728452
 10
22.05072905895309
 20
1.422234263967968
 10
22.05072905895309
 20
0.4650523883247186
 10
22.05072905895309
 20
-0.5199410672403499
 10
22.05072905895309
 20
-1.518840312766365
 10
22.05072905895309
 20
-2.51773955829233
 10
22.05072905895309
 20
-3.502733013857398
 10
22.05072905895309
 20
-4.459914889500648
 10
22.05072905895309
 20
-5.375379395261107
 10
22.05072905895309
 20
-6.235220741177878
 10
22.05072905895309
 20
-7.02553313729004
 10
22.05072905895309
 20
-7.732410793636745
 10
22.05072905895309
 20
-8.341947920256945
 10
22.05072905895309
 20
-8.840238727189847
 10
22.05072905895309
 20
-9.213377424474476
 10
22.05072905895309
 20
-9.447458222149862
 10
22.05072905895309
 20
-9.528575330255181
 10
22.04958059287757
 20
-9.561684103145706
 10
22.04618536165584
 20
-9.594213468121223
 10
22.04061861579523
 20
-9.626089682356122
 10
22.03295560580305
 20
-9.657239003024894
 10
22.02327158218653
 20
-9.687587687301958
 10
22.01164179545301
 20
-9.717061992361802
 10
21.99814149610968
 20
-9.745588175378845
 10
21.98284593466395
 20
-9.773092493527579
 10
21.96583036162307
 20
-9.799501203982369
 10
21.94717002749429
 20
-9.824740563917758
 10
21.92694018278492
 20
-9.848736830508135
 10
21.90521607800226
 20
-9.871416260927995
 10
21.8820729636536
 20
-9.892705112351752
 10
21.85758609024619
 20
-9.912529641953874
 10
21.83183070828737
 20
-9.930816106908752
 10
21.80488206828439
 20
-9.947490764390977
 10
21.77681542074457
 20
-9.962479871574865
 10
21.74770601617514
 20
-9.975709685634884
 10
21.71762910508351
 20
-9.987106463745577
 10
21.68665993797683
 20
-9.996596463081257
 10
21.65487376536246
 20
-10.00410594081644
 10
21.62234583774766
 20
-10.0095611541256
 10
21.58915140563977
 20
-10.01288836018317
  0
LINE
  5
7B
330
70
100
AcDbEntity
  8
LAYER_1
 62
     1
420
 16711680
370
    25
100
AcDbLine
 10
-6.216927611894637
 20
19.35480309388289
 30
0.0
 11
-4.033061063746016
 21
19.35480309388289
 31
0.0
  0
LINE
  5
7C
330
70
100
AcDbEntity
  8
LAYER_1
 62
   250
420
  3355443
370
    25
100
AcDbLine
 10
-6.263888888888888
 20
21.94025231263289
 30
0.0
 11
-4.080022340740255
 21
21.94025231263289
 31
0.0
  0
LINE
  5
7D
330
70
100
AcDbEntity
  8
LAYER_1
 62
    18
420
        0
370
    25
100
AcDbLine
 10
-6.819444444444443
 20
7.801711223295872
 30
0.0
 11
-6.819444444444443
 21
7.801711223295872
 31
0.0
  0
LINE
  5
7E
330
70
100
AcDbEntity
  8
LAYER_1
 62
   250
420
  3355443
370
    25
100
AcDbLine
 10
-6.819444444444443
 20
13.50726926689604
 30
0.0
 11
23.18055555555555
 21
13.50726926689604
 31
0.0
  0
LINE
  5
7F
330
70
100
AcDbEntity
  8
LAYER_1
 62
   250
420
  3355443
370
    25
100
AcDbLine
 10
-6.819444444444443
 20
14.47805465984536
 30
0.0
 11
-6.819444444444443
 21
12.47805465984537
 31
0.0
  0
LINE
  5
80
330
70
100
AcDbEntity
  8
LAYER_1
 62
   250
420
  3355443
370
    25
100
AcDbLine
 10
23.18055555555555
 20
14.50199302056728
 30
0.0
 11
23.18055555555555
 21
12.50199302056728
 31
0.0
  0
LINE
  5
81
330
70
100
AcDbEntity
  8
LAYER_1
 62
   250
420
  3355443
370
    25
100
AcDbLine
 10
-5.758888303319559
 20
10.48351725714923
 30
0.0
 11
22.24111169668044
 21
10.48351725714923
 31
0.0
  0
LINE
  5
82
330
70
100
AcDbEntity
  8
LAYER_1
 62
   250
420
  3355443
370
    25
100
AcDbLine
 10
-5.758888303319559
 20
11.45430265009855
 30
0.0
 11
-5.758888303319559
 21
9.45430265009851
 31
0.0
  0
LINE
  5
83
330
70
100
AcDbEntity
  8
LAYER_1
 62
   250
420
  3355443
370
    25
100
AcDbLine
 10
22.24111169668044
 20
11.47824101082047
 30
0.0
 11
22.24111169668044
 21
9.478241010820434
 31
0.0
  0
LINE
  5
84
330
70
100
AcDbEntity
  8
LAYER_1
 62
    18
420
        0
370
    25
100
AcDbLine
 10
-14.69444444444444
 20
8.293659687233912
 30
0.0
 11
-14.69444444444444
 21
8.293659687233912
 31
0.0
  0
LINE
  5
85
330
70
100
AcDbEntity
  8
LAYER_1
 62
    18
420
        0
370
    25
100
AcDbLine
 10
-11.44444444444444
 20
8.293659687233912
 30
0.0
 11
-11.44444444444444
 21
8.293659687233912
 31
0.0
  0
LINE
  5
86
330
70
100
AcDbEntity
  8
LAYER_1
 62
   250
420
  3355443
370
    25
100
AcDbLine
 10
-11.91944195639982
 20
8.293659687233912
 30
0.0
 11
-11.91944195639982
 21
-11.33134031276606
 31
0.0
  0
LINE
  5
87
330
70
100
AcDbEntity
  8
LAYER_1
 62
   250
420
  3355443
370
    25
100
AcDbLine
 10
-10.94865656345051
 20
8.293659687233912
 30
0.0
 11
-12.94865656345051
 21
8.293659687233912
 31
0.0
  0
LINE
  5
88
330
70
100
AcDbEntity
  8
LAYER_1
 62
   250
420
  3355443
370
    25
100
AcDbLine
 10
-10.9247182027286
 20
-11.33134031276606
 30
0.0
 11
-12.9247182027286
 21
-11.33134031276606
 31
0.0
  0
LINE
  5
89
330
70
100
AcDbEntity
  8
LAYER_1
 62
   250
420
  3355443
370
    25
100
AcDbLine
 10
-8.895503595677912
 20
7.244842662318925
 30
0.0
 11
-8.895503595677912
 21
-10.25515733768108
 31
0.0
  0
LINE
  5
8A
330
70
100
AcDbEntity
  8
LAYER_1
 62
   250
420
  3355443
370
    25
100
AcDbLine
 10
-7.924718202728601
 20
7.244842662318925
 30
0.0
 11
-9.9247182027286
 21
7.244842662318925
 31
0.0
  0
LINE
  5
8B
330
70
100
AcDbEntity
  8
LAYER_1
 62
   250
420
  3355443
370
    25
100
AcDbLine
 10
-7.900779842006689
 20
-10.25515733768108
 30
0.0
 11
-9.900779842006688
 21
-10.25515733768108
 31
0.0
  0
INSERT
  5
8D
330
70
100
AcDbEntity
  8
0
100
AcDbBlockReference
  2
Block_0
 10
0.0
 20
0.0
 30
0.0
  0
INSERT
  5
A3
330
70
100
AcDbEntity
  8
0
100
AcDbBlockReference
  2
Block_2
 10
0.0
 20
0.0
 30
0.0
  0
INSERT
  5
B8
330
70
100
AcDbEntity
  8
0
100
AcDbBlockReference
  2
Block_4
 10
0.0
 20
0.0
 30
0.0
  0
INSERT
  5
C7
330
70
100
AcDbEntity
  8
0
100
AcDbBlockReference
  2
Block_6
 10
0.0
 20
0.0
 30
0.0
  0
INSERT
  5
D7
330
70
100
AcDbEntity
  8
0
100
AcDbBlockReference
  2
Block_8
 10
0.0
 20
0.0
 30
0.0
  0
INSERT
  5
F7
330
70
100
AcDbEntity
  8
0
100
AcDbBlockReference
  2
Block_10
 10
0.0
 20
0.0
 30
0.0
  0
ENDSEC
  0
SECTION
  2
OBJECTS
  0
DICTIONARY
  5
C
330
0
100
AcDbDictionary
281
     1
  3
ACAD_COLOR
350
63
  3
ACAD_DETAILVIEWSTYLE
350
6A
  3
ACAD_GROUP
350
D
  3
ACAD_LAYOUT
350
62
  3
ACAD_MATERIAL
350
10
  3
ACAD_MLEADERSTYLE
350
66
  3
ACAD_MLINESTYLE
350
5F
  3
ACAD_PLOTSETTINGS
350
61
  3
ACAD_PLOTSTYLENAME
350
E
  3
ACAD_SCALELIST
350
42
  3
ACAD_SECTIONVIEWSTYLE
350
68
  3
ACAD_TABLESTYLE
350
64
  3
ACAD_VISUALSTYLE
350
29
  3
ACDB_RECOMPOSE_DATA
350
11C
  3
AcDbVariableDictionary
350
114
  0
DICTIONARY
  5
63
102
{ACAD_REACTORS
330
C
102
}
330
C
100
AcDbDictionary
281
     1
  0
DICTIONARY
  5
6A
102
{ACAD_REACTORS
330
C
102
}
330
C
100
AcDbDictionary
281
     1
  3
Imperial24
350
6B
  0
DICTIONARY
  5
D
102
{ACAD_REACTORS
330
C
102
}
330
C
100
AcDbDictionary
281
     1
  0
DICTIONARY
  5
62
102
{ACAD_REACTORS
330
C
102
}
330
C
100
AcDbDictionary
281
     1
  3
Layout1
350
6F
  3
Layout2
350
77
  3
Model
350
73
  0
DICTIONARY
  5
10
102
{ACAD_REACTORS
330
C
102
}
330
C
100
AcDbDictionary
281
     1
  3
ByBlock
350
19
  3
ByLayer
350
11
  3
Global
350
21
  0
DICTIONARY
  5
66
102
{ACAD_REACTORS
330
C
102
}
330
C
100
AcDbDictionary
281
     1
  3
Standard
350
67
  0
DICTIONARY
  5
5F
102
{ACAD_REACTORS
330
C
102
}
330
C
100
AcDbDictionary
281
     1
  3
Standard
350
60
  0
DICTIONARY
  5
61
102
{ACAD_REACTORS
330
C
102
}
330
C
100
AcDbDictionary
281
     1
  0
ACDBDICTIONARYWDFLT
  5
E
102
{ACAD_REACTORS
330
C
102
}
330
C
100
AcDbDictionary
281
     1
  3
Normal
350
F
100
AcDbDictionaryWithDefault
340
F
  0
DICTIONARY
  5
42
102
{ACAD_REACTORS
330
C
102
}
330
C
100
AcDbDictionary
281
     1
  3
A0
350
43
  3
A1
350
44
  3
A2
350
45
  3
A3
350
46
  3
A4
350
47
  3
A5
350
48
  3
A6
350
49
  3
A7
350
4A
  3
A8
350
4B
  3
A9
350
4C
  3
B0
350
4D
  3
B1
350
4E
  3
B2
350
4F
  3
B3
350
50
  3
B4
350
51
  3
B5
350
52
  3
B6
350
53
  0
DICTIONARY
  5
68
102
{ACAD_REACTORS
330
C
102
}
330
C
100
AcDbDictionary
281
     1
  3
Imperial24
350
69
  0
DICTIONARY
  5
64
102
{ACAD_REACTORS
330
C
102
}
330
C
100
AcDbDictionary
281
     1
  3
Standard
350
65
  0
DICTIONARY
  5
29
102
{ACAD_REACTORS
330
C
102
}
330
C
100
AcDbDictionary
281
     1
  3
2dWireframe
350
2F
  3
Basic
350
2E
  3
Brighten
350
35
  3
ColorChange
350
39
  3
Conceptual
350
32
  3
Dim
350
34
  3
EdgeColorOff
350
41
  3
Facepattern
350
38
  3
Flat
350
2A
  3
FlatWithEdges
350
2B
  3
Gouraud
350
2C
  3
GouraudWithEdges
350
2D
  3
Hidden
350
31
  3
JitterOff
350
3F
  3
Linepattern
350
37
  3
OverhangOff
350
40
  3
Realistic
350
33
  3
Shaded
350
3E
  3
Shaded with edges
350
3D
  3
Shades of Gray
350
3A
  3
Sketchy
350
3B
  3
Thicken
350
36
  3
Wireframe
350
30
  3
X-Ray
350
3C
  0
XRECORD
  5
11C
102
{ACAD_REACTORS
330
C
102
}
330
C
100
AcDbXrecord
280
     1
 90
        1
330
65
  0
DICTIONARY
  5
114
102
{ACAD_REACTORS
330
C
102
}
330
C
100
AcDbDictionary
281
     1
  3
CANNOSCALE
350
119
  3
CMLEADERSTYLE
350
116
  3
CTABLESTYLE
350
115
  3
CVIEWDETAILSTYLE
350
117
  3
CVIEWSECTIONSTYLE
350
118
  0
ACDBDETAILVIEWSTYLE
  5
6B
102
{ACAD_XDICTIONARY
360
151
102
}
102
{ACAD_REACTORS
330
6A
102
}
330
6A
100
AcDbModelDocViewStyle
 70
     0
  3
Imperial24
290
     0
100
AcDbDetailViewStyle
 70
     0
 71
     0
 90
        3
 71
     1
340
55
 62
   256
 40
0.24
340
0
 62
   256
 40
0.24
300

 40
0.36
280
     3
 71
     2
340
5D
 90
       25
 62
   256
 71
     3
340
55
 62
   256
 40
0.24
 90
        1
 40
0.75
 90
        1
300
%<\AcVar ViewType \f "%tc1">% %<\AcVar ViewDetailId>%\PSCALE %<\AcVar ViewScale \f "%sn">%
 71
     4
340
5D
 90
       25
 62
   256
340
5D
 90
       25
 62
   256
280
     0
  0
LAYOUT
  5
6F
102
{ACAD_REACTORS
330
62
102
}
330
62
100
AcDbPlotSettings
  1

  2

  4

  6

 40
0.0
 41
0.0
 42
0.0
 43
0.0
 44
0.0
 45
0.0
 46
0.0
 47
0.0
 48
0.0
 49
0.0
140
0.0
141
0.0
142
1.0
143
1.0
 70
   688
 72
     0
 73
     0
 74
     5
  7

 75
    16
147
1.0
 76
     0
 77
     2
 78
   300
148
0.0
149
0.0
100
AcDbLayout
  1
Layout1
 70
     1
 71
     1
 10
0.0
 20
0.0
 11
12.0
 21
9.0
 12
0.0
 22
0.0
 32
0.0
 14
0.0
 24
0.0
 34
0.0
 15
0.0
 25
0.0
 35
0.0
146
0.0
 13
0.0
 23
0.0
 33
0.0
 16
1.0
 26
0.0
 36
0.0
 17
0.0
 27
1.0
 37
0.0
 76
     0
330
6C
  0
LAYOUT
  5
77
102
{ACAD_REACTORS
330
62
102
}
330
62
100
AcDbPlotSettings
  1

  2

  4

  6

 40
0.0
 41
0.0
 42
0.0
 43
0.0
 44
0.0
 45
0.0
 46
0.0
 47
0.0
 48
0.0
 49
0.0
140
0.0
141
0.0
142
1.0
143
1.0
 70
   688
 72
     0
 73
     0
 74
     5
  7

 75
    16
147
1.0
 76
     0
 77
     2
 78
   300
148
0.0
149
0.0
100
AcDbLayout
  1
Layout2
 70
     1
 71
     2
 10
0.0
 20
0.0
 11
12.0
 21
9.0
 12
0.0
 22
0.0
 32
0.0
 14
0.0
 24
0.0
 34
0.0
 15
0.0
 25
0.0
 35
0.0
146
0.0
 13
0.0
 23
0.0
 33
0.0
 16
1.0
 26
0.0
 36
0.0
 17
0.0
 27
1.0
 37
0.0
 76
     0
330
74
  0
LAYOUT
  5
73
102
{ACAD_REACTORS
330
62
102
}
330
62
100
AcDbPlotSettings
  1

  2

  4

  6

 40
0.0
 41
0.0
 42
0.0
 43
0.0
 44
0.0
 45
0.0
 46
0.0
 47
0.0
 48
0.0
 49
0.0
140
0.0
141
0.0
142
1.0
143
1.0
 70
  1712
 72
     0
 73
     0
 74
     0
  7

 75
     0
147
1.0
 76
     0
 77
     2
 78
   300
148
0.0
149
0.0
100
AcDbLayout
  1
Model
 70
     1
 71
     0
 10
0.0
 20
0.0
 11
12.0
 21
9.0
 12
0.0
 22
0.0
 32
0.0
 14
0.0
 24
0.0
 34
0.0
 15
0.0
 25
0.0
 35
0.0
146
0.0
 13
0.0
 23
0.0
 33
0.0
 16
1.0
 26
0.0
 36
0.0
 17
0.0
 27
1.0
 37
0.0
 76
     0
330
70
  0
MATERIAL
  5
19
102
{ACAD_XDICTIONARY
360
1A
102
}
102
{ACAD_REACTORS
330
10
102
}
330
10
100
AcDbMaterial
  1
ByBlock
 72
     0
 43
0.0208333333333333
 43
0.0
 43
0.0
 43
0.0
 43
0.0
 43
0.0208333333333333
 43
0.0
 43
0.0
 43
0.0
 43
0.0
 43
1.0
 43
0.0
 43
0.0
 43
0.0
 43
0.0
 43
1.0
 77
     0
 47
0.0208333333333333
 47
0.0
 47
0.0
 47
0.0
 47
0.0
 47
0.0208333333333333
 47
0.0
 47
0.0
 47
0.0
 47
0.0
 47
1.0
 47
0.0
 47
0.0
 47
0.0
 47
0.0
 47
1.0
171
     0
 49
0.0208333333333333
 49
0.0
 49
0.0
 49
0.0
 49
0.0
 49
0.0208333333333333
 49
0.0
 49
0.0
 49
0.0
 49
0.0
 49
1.0
 49
0.0
 49
0.0
 49
0.0
 49
0.0
 49
1.0
175
     0
142
0.0208333333333333
142
0.0
142
0.0
142
0.0
142
0.0
142
0.0208333333333333
142
0.0
142
0.0
142
0.0
142
0.0
142
1.0
142
0.0
142
0.0
142
0.0
142
0.0
142
1.0
179
     0
144
0.0208333333333333
144
0.0
144
0.0
144
0.0
144
0.0
144
0.0208333333333333
144
0.0
144
0.0
144
0.0
144
0.0
144
1.0
144
0.0
144
0.0
144
0.0
144
0.0
144
1.0
147
0.0208333333333333
147
0.0
147
0.0
147
0.0
147
0.0
147
0.0208333333333333
147
0.0
147
0.0
147
0.0
147
0.0
147
1.0
147
0.0
147
0.0
147
0.0
147
0.0
147
1.0
  0
MATERIAL
  5
11
102
{ACAD_XDICTIONARY
360
12
102
}
102
{ACAD_REACTORS
330
10
102
}
330
10
100
AcDbMaterial
  1
ByLayer
 72
     0
 43
0.0208333333333333
 43
0.0
 43
0.0
 43
0.0
 43
0.0
 43
0.0208333333333333
 43
0.0
 43
0.0
 43
0.0
 43
0.0
 43
1.0
 43
0.0
 43
0.0
 43
0.0
 43
0.0
 43
1.0
 77
     0
 47
0.0208333333333333
 47
0.0
 47
0.0
 47
0.0
 47
0.0
 47
0.0208333333333333
 47
0.0
 47
0.0
 47
0.0
 47
0.0
 47
1.0
 47
0.0
 47
0.0
 47
0.0
 47
0.0
 47
1.0
171
     0
 49
0.0208333333333333
 49
0.0
 49
0.0
 49
0.0
 49
0.0
 49
0.0208333333333333
 49
0.0
 49
0.0
 49
0.0
 49
0.0
 49
1.0
 49
0.0
 49
0.0
 49
0.0
 49
0.0
 49
1.0
175
     0
142
0.0208333333333333
142
0.0
142
0.0
142
0.0
142
0.0
142
0.0208333333333333
142
0.0
142
0.0
142
0.0
142
0.0
142
1.0
142
0.0
142
0.0
142
0.0
142
0.0
142
1.0
179
     0
144
0.0208333333333333
144
0.0
144
0.0
144
0.0
144
0.0
144
0.0208333333333333
144
0.0
144
0.0
144
0.0
144
0.0
144
1.0
144
0.0
144
0.0
144
0.0
144
0.0
144
1.0
147
0.0208333333333333
147
0.0
147
0.0
147
0.0
147
0.0
147
0.0208333333333333
147
0.0
147
0.0
147
0.0
147
0.0
147
1.0
147
0.0
147
0.0
147
0.0
147
0.0
147
1.0
  0
MATERIAL
  5
21
102
{ACAD_XDICTIONARY
360
22
102
}
102
{ACAD_REACTORS
330
10
102
}
330
10
100
AcDbMaterial
  1
Global
 72
     0
 43
0.0208333333333333
 43
0.0
 43
0.0
 43
0.0
 43
0.0
 43
0.0208333333333333
 43
0.0
 43
0.0
 43
0.0
 43
0.0
 43
1.0
 43
0.0
 43
0.0
 43
0.0
 43
0.0
 43
1.0
 77
     0
 47
0.0208333333333333
 47
0.0
 47
0.0
 47
0.0
 47
0.0
 47
0.0208333333333333
 47
0.0
 47
0.0
 47
0.0
 47
0.0
 47
1.0
 47
0.0
 47
0.0
 47
0.0
 47
0.0
 47
1.0
171
     0
 49
0.0208333333333333
 49
0.0
 49
0.0
 49
0.0
 49
0.0
 49
0.0208333333333333
 49
0.0
 49
0.0
 49
0.0
 49
0.0
 49
1.0
 49
0.0
 49
0.0
 49
0.0
 49
0.0
 49
1.0
175
     0
142
0.0208333333333333
142
0.0
142
0.0
142
0.0
142
0.0
142
0.0208333333333333
142
0.0
142
0.0
142
0.0
142
0.0
142
1.0
142
0.0
142
0.0
142
0.0
142
0.0
142
1.0
179
     0
144
0.0208333333333333
144
0.0
144
0.0
144
0.0
144
0.0
144
0.0208333333333333
144
0.0
144
0.0
144
0.0
144
0.0
144
1.0
144
0.0
144
0.0
144
0.0
144
0.0
144
1.0
147
0.0208333333333333
147
0.0
147
0.0
147
0.0
147
0.0
147
0.0208333333333333
147
0.0
147
0.0
147
0.0
147
0.0
147
1.0
147
0.0
147
0.0
147
0.0
147
0.0
147
1.0
  0
MLEADERSTYLE
  5
67
102
{ACAD_XDICTIONARY
360
14D
102
}
102
{ACAD_REACTORS
330
66
102
}
330
66
100
AcDbMLeaderStyle
179
     2
170
     2
171
     1
172
     0
 90
        2
 40
0.0
 41
0.0
173
     1
 91
-1056964608
340
5B
 92
       -2
290
     1
 42
0.09
291
     1
 43
0.36
  3
Standard
 44
0.18
300

342
55
174
     1
178
     6
175
     1
176
     0
 93
-1056964608
 45
0.18
292
     0
297
     0
 46
0.18
 94
-1056964608
 47
1.0
 49
1.0
140
1.0
293
     1
141
0.0
294
     1
177
     0
142
1.0
295
     0
296
     0
143
0.125
271
     0
272
     9
273
     9
  0
MLINESTYLE
  5
60
102
{ACAD_REACTORS
330
5F
102
}
330
5F
100
AcDbMlineStyle
  2
STANDARD
 70
     0
  3

 62
   256
 51
90.0
 52
90.0
 71
     2
 49
0.5
 62
   256
  6
BYLAYER
 49
-0.5
 62
   256
  6
BYLAYER
  0
ACDBPLACEHOLDER
  5
F
102
{ACAD_REACTORS
330
E
102
}
330
E
  0
SCALE
  5
43
102
{ACAD_REACTORS
330
42
102
}
330
42
100
AcDbScale
 70
     0
300
1:1
140
1.0
141
1.0
290
     1
  0
SCALE
  5
44
102
{ACAD_REACTORS
330
42
102
}
330
42
100
AcDbScale
 70
     0
300
1/128" = 1'-0"
140
0.0078125
141
12.0
290
     0
  0
SCALE
  5
45
102
{ACAD_REACTORS
330
42
102
}
330
42
100
AcDbScale
 70
     0
300
1/64" = 1'-0"
140
0.015625
141
12.0
290
     0
  0
SCALE
  5
46
102
{ACAD_REACTORS
330
42
102
}
330
42
100
AcDbScale
 70
     0
300
1/32" = 1'-0"
140
0.03125
141
12.0
290
     0
  0
SCALE
  5
47
102
{ACAD_REACTORS
330
42
102
}
330
42
100
AcDbScale
 70
     0
300
1/16" = 1'-0"
140
0.0625
141
12.0
290
     0
  0
SCALE
  5
48
102
{ACAD_REACTORS
330
42
102
}
330
42
100
AcDbScale
 70
     0
300
3/32" = 1'-0"
140
0.09375
141
12.0
290
     0
  0
SCALE
  5
49
102
{ACAD_REACTORS
330
42
102
}
330
42
100
AcDbScale
 70
     0
300
1/8" = 1'-0"
140
0.125
141
12.0
290
     0
  0
SCALE
  5
4A
102
{ACAD_REACTORS
330
42
102
}
330
42
100
AcDbScale
 70
     0
300
3/16" = 1'-0"
140
0.1875
141
12.0
290
     0
  0
SCALE
  5
4B
102
{ACAD_REACTORS
330
42
102
}
330
42
100
AcDbScale
 70
     0
300
1/4" = 1'-0"
140
0.25
141
12.0
290
     0
  0
SCALE
  5
4C
102
{ACAD_REACTORS
330
42
102
}
330
42
100
AcDbScale
 70
     0
300
3/8" = 1'-0"
140
0.375
141
12.0
290
     0
  0
SCALE
  5
4D
102
{ACAD_REACTORS
330
42
102
}
330
42
100
AcDbScale
 70
     0
300
1/2" = 1'-0"
140
0.5
141
12.0
290
     0
  0
SCALE
  5
4E
102
{ACAD_REACTORS
330
42
102
}
330
42
100
AcDbScale
 70
     0
300
3/4" = 1'-0"
140
0.75
141
12.0
290
     0
  0
SCALE
  5
4F
102
{ACAD_REACTORS
330
42
102
}
330
42
100
AcDbScale
 70
     0
300
1" = 1'-0"
140
1.0
141
12.0
290
     0
  0
SCALE
  5
50
102
{ACAD_REACTORS
330
42
102
}
330
42
100
AcDbScale
 70
     0
300
1-1/2" = 1'-0"
140
1.5
141
12.0
290
     0
  0
SCALE
  5
51
102
{ACAD_REACTORS
330
42
102
}
330
42
100
AcDbScale
 70
     0
300
3" = 1'-0"
140
3.0
141
12.0
290
     0
  0
SCALE
  5
52
102
{ACAD_REACTORS
330
42
102
}
330
42
100
AcDbScale
 70
     0
300
6" = 1'-0"
140
6.0
141
12.0
290
     0
  0
SCALE
  5
53
102
{ACAD_REACTORS
330
42
102
}
330
42
100
AcDbScale
 70
     0
300
1'-0" = 1'-0"
140
12.0
141
12.0
290
     0
  0
ACDBSECTIONVIEWSTYLE
  5
69
102
{ACAD_XDICTIONARY
360
14F
102
}
102
{ACAD_REACTORS
330
68
102
}
330
68
100
AcDbModelDocViewStyle
 70
     0
  3
Imperial24
290
     0
100
AcDbSectionViewStyle
 70
     0
 71
     0
 90
       78
 71
     1
340
55
 62
   256
 40
0.24
340
0
340
0
 62
   256
 40
0.24
300
I, O, Q, S, X, Z
 40
0.48
 90
        3
 40
0.18
 90
        1
 71
     2
340
5D
 90
       25
 62
   256
340
5D
 90
       50
 62
   256
 40
0.24
 40
0.0
 40
0.24
 71
     3
340
55
 62
   256
 40
0.24
 90
        1
 40
0.75
 90
        1
300
%<\AcVar ViewType \f "%tc1">% %<\AcVar ViewSectionStartId>%-%<\AcVar ViewSectionEndId>%\PSCALE %<\AcVar ViewScale \f "%sn">%
 71
     4
 62
   256
 62
   257
300
ANSI31
 40
1.0
 90
        0
290
     0
290
     0
 90
        6
 40
0.0
 40
1.570796326794896
 40
0.2617993877991494
 40
1.308996938995747
 40
-0.2617993877991494
 40
1.832595714594046
  0
TABLESTYLE
  5
65
102
{ACAD_XDICTIONARY
360
11A
102
}
102
{ACAD_REACTORS
330
64
102
}
330
64
100
AcDbTableStyle
280
     0
  3
Standard
 70
     0
 71
     0
 40
0.06
 41
0.06
280
     0
281
     0
  7
Standard
140
0.18
170
     2
 62
     0
 63
     7
283
     0
 90
      512
 91
        0
  1

274
    -2
284
     1
 64
     0
275
    -2
285
     1
 65
     0
276
    -2
286
     1
 66
     0
277
    -2
287
     1
 67
     0
278
    -2
288
     1
 68
     0
279
    -2
289
     1
 69
     0
  7
Standard
140
0.25
170
     5
 62
     0
 63
     7
283
     0
 90
      512
 91
        0
  1

274
    -2
284
     1
 64
     0
275
    -2
285
     1
 65
     0
276
    -2
286
     1
 66
     0
277
    -2
287
     1
 67
     0
278
    -2
288
     1
 68
     0
279
    -2
289
     1
 69
     0
  7
Standard
140
0.18
170
     5
 62
     0
 63
     7
283
     0
 90
      512
 91
        0
  1

274
    -2
284
     1
 64
     0
275
    -2
285
     1
 65
     0
276
    -2
286
     1
 66
     0
277
    -2
287
     1
 67
     0
278
    -2
288
     1
 68
     0
279
    -2
289
     1
 69
     0
  0
VISUALSTYLE
  5
2F
102
{ACAD_XDICTIONARY
360
127
102
}
102
{ACAD_REACTORS
330
29
102
}
330
29
100
AcDbVisualStyle
  2
2dWireframe
 70
     4
177
     2
291
     0
 71
     0
176
     1
 72
     2
176
     1
 73
     0
176
     1
 90
        0
176
     1
 40
0.6
176
     1
 41
30.0
176
     1
 63
     7
421
 16777215
176
     1
 74
     1
176
     1
 91
        4
176
     1
 64
     7
176
     1
 65
   257
176
     1
 75
     1
176
     1
175
     1
176
     1
 42
1.0
176
     1
 92
        0
176
     1
 66
   257
176
     1
 43
1.0
176
     1
 76
     1
176
     1
 77
     6
176
     1
 78
     2
176
     1
 67
     7
176
     1
 79
     5
176
     1
170
     0
176
     1
171
     0
176
     1
290
     0
176
     1
 93
        1
176
     1
 44
0.0
176
     1
173
     0
176
     1
1001
ACAD
1000
AcDbSavedByObjectVersion
1070
     0
  0
VISUALSTYLE
  5
2E
102
{ACAD_XDICTIONARY
360
125
102
}
102
{ACAD_REACTORS
330
29
102
}
330
29
100
AcDbVisualStyle
  2
Basic
 70
     7
177
     2
291
     1
 71
     1
176
     1
 72
     0
176
     1
 73
     1
176
     1
 90
        0
176
     1
 40
0.6
176
     1
 41
30.0
176
     1
 63
     7
421
 16777215
176
     1
 74
     0
176
     1
 91
        4
176
     1
 64
     7
176
     1
 65
   257
176
     1
 75
     1
176
     1
175
     1
176
     1
 42
1.0
176
     1
 92
        8
176
     1
 66
     7
176
     1
 43
1.0
176
     1
 76
     1
176
     1
 77
     6
176
     1
 78
     2
176
     1
 67
     7
176
     1
 79
     5
176
     1
170
     0
176
     1
171
     0
176
     1
290
     0
176
     1
 93
        1
176
     1
 44
0.0
176
     1
173
     0
176
     1
1001
ACAD
1000
AcDbSavedByObjectVersion
1070
     0
  0
VISUALSTYLE
  5
35
102
{ACAD_XDICTIONARY
360
133
102
}
102
{ACAD_REACTORS
330
29
102
}
330
29
100
AcDbVisualStyle
  2
Brighten
 70
    12
177
     2
291
     1
 71
     2
176
     1
 72
     2
176
     1
 73
     0
176
     1
 90
        0
176
     1
 40
0.6
176
     1
 41
30.0
176
     1
 63
     7
421
 16777215
176
     1
 74
     1
176
     1
 91
        4
176
     1
 64
     7
176
     1
 65
   257
176
     1
 75
     1
176
     1
175
     1
176
     1
 42
1.0
176
     1
 92
        8
176
     1
 66
     7
176
     1
 43
1.0
176
     1
 76
     1
176
     1
 77
     6
176
     1
 78
     2
176
     1
 67
     7
176
     1
 79
     5
176
     1
170
     0
176
     1
171
     0
176
     1
290
     0
176
     1
 93
        1
176
     1
 44
50.0
176
     1
173
     0
176
     1
1001
ACAD
1000
AcDbSavedByObjectVersion
1070
     0
  0
VISUALSTYLE
  5
39
102
{ACAD_XDICTIONARY
360
13B
102
}
102
{ACAD_REACTORS
330
29
102
}
330
29
100
AcDbVisualStyle
  2
ColorChange
 70
    16
177
     2
291
     1
 71
     2
176
     1
 72
     2
176
     1
 73
     3
176
     1
 90
        0
176
     1
 40
0.6
176
     1
 41
30.0
176
     1
 63
     8
421
  8421504
176
     1
 74
     1
176
     1
 91
        4
176
     1
 64
     7
176
     1
 65
   257
176
     1
 75
     1
176
     1
175
     1
176
     1
 42
1.0
176
     1
 92
        8
176
     1
 66
     8
424
  8421504
176
     1
 43
1.0
176
     1
 76
     1
176
     1
 77
     6
176
     1
 78
     2
176
     1
 67
     7
176
     1
 79
     5
176
     1
170
     0
176
     1
171
     0
176
     1
290
     0
176
     1
 93
        1
176
     1
 44
0.0
176
     1
173
     0
176
     1
1001
ACAD
1000
AcDbSavedByObjectVersion
1070
     0
  0
VISUALSTYLE
  5
32
102
{ACAD_XDICTIONARY
360
12D
102
}
102
{ACAD_REACTORS
330
29
102
}
330
29
100
AcDbVisualStyle
  2
Conceptual
 70
     9
177
     2
291
     0
 71
     3
176
     1
 72
     2
176
     1
 73
     0
176
     1
 90
        0
176
     1
 40
0.6
176
     1
 41
30.0
176
     1
 63
     7
421
 16777215
176
     1
 74
     2
176
     1
 91
        2
176
     1
 64
     7
176
     1
 65
   257
176
     1
 75
     1
176
     1
175
     1
176
     1
 42
179.0
176
     1
 92
        8
176
     1
 66
     7
176
     1
 43
1.0
176
     1
 76
     1
176
     1
 77
     6
176
     1
 78
     2
176
     1
 67
     7
176
     1
 79
     3
176
     1
170
     0
176
     1
171
     0
176
     1
290
     0
176
     1
 93
        1
176
     1
 44
0.0
176
     1
173
     0
176
     1
1001
ACAD
1000
AcDbSavedByObjectVersion
1070
     0
  0
VISUALSTYLE
  5
34
102
{ACAD_XDICTIONARY
360
131
102
}
102
{ACAD_REACTORS
330
29
102
}
330
29
100
AcDbVisualStyle
  2
Dim
 70
    11
177
     2
291
     1
 71
     2
176
     1
 72
     2
176
     1
 73
     0
176
     1
 90
        0
176
     1
 40
0.6
176
     1
 41
30.0
176
     1
 63
     7
421
 16777215
176
     1
 74
     1
176
     1
 91
        4
176
     1
 64
     7
176
     1
 65
   257
176
     1
 75
     1
176
     1
175
     1
176
     1
 42
1.0
176
     1
 92
        8
176
     1
 66
     7
176
     1
 43
1.0
176
     1
 76
     1
176
     1
 77
     6
176
     1
 78
     2
176
     1
 67
     7
176
     1
 79
     5
176
     1
170
     0
176
     1
171
     0
176
     1
290
     0
176
     1
 93
        1
176
     1
 44
-50.0
176
     1
173
     0
176
     1
1001
ACAD
1000
AcDbSavedByObjectVersion
1070
     0
  0
VISUALSTYLE
  5
41
102
{ACAD_XDICTIONARY
360
14B
102
}
102
{ACAD_REACTORS
330
29
102
}
330
29
100
AcDbVisualStyle
  2
EdgeColorOff
 70
    22
177
     2
291
     1
 71
     2
176
     0
 72
     2
176
     0
 73
     0
176
     0
 90
        0
176
     0
 40
0.6
176
     0
 41
30.0
176
     0
 63
     7
421
 16777215
176
     0
 74
     1
176
     0
 91
        4
176
     0
 64
     7
176
     0
 65
   257
176
     0
 75
     1
176
     0
175
     1
176
     0
 42
1.0
176
     0
 92
        8
176
     2
 66
     7
176
     0
 43
1.0
176
     0
 76
     1
176
     0
 77
     6
176
     0
 78
     2
176
     0
 67
     7
176
     0
 79
     5
176
     0
170
     0
176
     0
171
     0
176
     0
290
     0
176
     0
 93
        1
176
     0
 44
0.0
176
     0
173
     0
176
     0
1001
ACAD
1000
AcDbSavedByObjectVersion
1070
     0
  0
VISUALSTYLE
  5
38
102
{ACAD_XDICTIONARY
360
139
102
}
102
{ACAD_REACTORS
330
29
102
}
330
29
100
AcDbVisualStyle
  2
Facepattern
 70
    15
177
     2
291
     1
 71
     2
176
     1
 72
     2
176
     1
 73
     0
176
     1
 90
        0
176
     1
 40
0.6
176
     1
 41
30.0
176
     1
 63
     7
421
 16777215
176
     1
 74
     1
176
     1
 91
        4
176
     1
 64
     7
176
     1
 65
   257
176
     1
 75
     1
176
     1
175
     1
176
     1
 42
1.0
176
     1
 92
        8
176
     1
 66
     7
176
     1
 43
1.0
176
     1
 76
     1
176
     1
 77
     6
176
     1
 78
     2
176
     1
 67
     7
176
     1
 79
     5
176
     1
170
     0
176
     1
171
     0
176
     1
290
     0
176
     1
 93
        1
176
     1
 44
0.0
176
     1
173
     0
176
     1
1001
ACAD
1000
AcDbSavedByObjectVersion
1070
     0
  0
VISUALSTYLE
  5
2A
102
{ACAD_XDICTIONARY
360
11D
102
}
102
{ACAD_REACTORS
330
29
102
}
330
29
100
AcDbVisualStyle
  2
Flat
 70
     0
177
     2
291
     1
 71
     2
176
     1
 72
     1
176
     1
 73
     1
176
     1
 90
        2
176
     1
 40
0.6
176
     1
 41
30.0
176
     1
 63
     7
421
 16777215
176
     1
 74
     0
176
     1
 91
        0
176
     1
 64
     7
176
     1
 65
   257
176
     1
 75
     1
176
     1
175
     1
176
     1
 42
1.0
176
     1
 92
        8
176
     1
 66
     7
176
     1
 43
1.0
176
     1
 76
     1
176
     1
 77
     6
176
     1
 78
     2
176
     1
 67
     7
176
     1
 79
     5
176
     1
170
     0
176
     1
171
     0
176
     1
290
     0
176
     1
 93
       13
176
     1
 44
0.0
176
     1
173
     0
176
     1
1001
ACAD
1000
AcDbSavedByObjectVersion
1070
     0
  0
VISUALSTYLE
  5
2B
102
{ACAD_XDICTIONARY
360
11F
102
}
102
{ACAD_REACTORS
330
29
102
}
330
29
100
AcDbVisualStyle
  2
FlatWithEdges
 70
     1
177
     2
291
     1
 71
     2
176
     1
 72
     1
176
     1
 73
     1
176
     1
 90
        2
176
     1
 40
0.6
176
     1
 41
30.0
176
     1
 63
     7
421
 16777215
176
     1
 74
     1
176
     1
 91
        0
176
     1
 64
     7
176
     1
 65
   257
176
     1
 75
     1
176
     1
175
     1
176
     1
 42
1.0
176
     1
 92
        0
176
     1
 66
   257
176
     1
 43
1.0
176
     1
 76
     1
176
     1
 77
     6
176
     1
 78
     2
176
     1
 67
     7
176
     1
 79
     5
176
     1
170
     0
176
     1
171
     0
176
     1
290
     0
176
     1
 93
       13
176
     1
 44
0.0
176
     1
173
     0
176
     1
1001
ACAD
1000
AcDbSavedByObjectVersion
1070
     0
  0
VISUALSTYLE
  5
2C
102
{ACAD_XDICTIONARY
360
121
102
}
102
{ACAD_REACTORS
330
29
102
}
330
29
100
AcDbVisualStyle
  2
Gouraud
 70
     2
177
     2
291
     1
 71
     2
176
     1
 72
     2
176
     1
 73
     1
176
     1
 90
        2
176
     1
 40
0.6
176
     1
 41
30.0
176
     1
 63
     7
421
 16777215
176
     1
 74
     0
176
     1
 91
        0
176
     1
 64
     7
176
     1
 65
   257
176
     1
 75
     1
176
     1
175
     1
176
     1
 42
1.0
176
     1
 92
        0
176
     1
 66
     7
176
     1
 43
1.0
176
     1
 76
     1
176
     1
 77
     6
176
     1
 78
     2
176
     1
 67
     7
176
     1
 79
     5
176
     1
170
     0
176
     1
171
     0
176
     1
290
     0
176
     1
 93
       13
176
     1
 44
0.0
176
     1
173
     0
176
     1
1001
ACAD
1000
AcDbSavedByObjectVersion
1070
     0
  0
VISUALSTYLE
  5
2D
102
{ACAD_XDICTIONARY
360
123
102
}
102
{ACAD_REACTORS
330
29
102
}
330
29
100
AcDbVisualStyle
  2
GouraudWithEdges
 70
     3
177
     2
291
     1
 71
     2
176
     1
 72
     2
176
     1
 73
     1
176
     1
 90
        2
176
     1
 40
0.6
176
     1
 41
30.0
176
     1
 63
     7
421
 16777215
176
     1
 74
     1
176
     1
 91
        0
176
     1
 64
     7
176
     1
 65
   257
176
     1
 75
     1
176
     1
175
     1
176
     1
 42
1.0
176
     1
 92
        0
176
     1
 66
   257
176
     1
 43
1.0
176
     1
 76
     1
176
     1
 77
     6
176
     1
 78
     2
176
     1
 67
     7
176
     1
 79
     5
176
     1
170
     0
176
     1
171
     0
176
     1
290
     0
176
     1
 93
       13
176
     1
 44
0.0
176
     1
173
     0
176
     1
1001
ACAD
1000
AcDbSavedByObjectVersion
1070
     0
  0
VISUALSTYLE
  5
31
102
{ACAD_XDICTIONARY
360
12B
102
}
102
{ACAD_REACTORS
330
29
102
}
330
29
100
AcDbVisualStyle
  2
Hidden
 70
     6
177
     2
291
     0
 71
     1
176
     1
 72
     2
176
     1
 73
     2
176
     1
 90
        0
176
     1
 40
0.6
176
     1
 41
30.0
176
     1
 63
     7
421
 16777215
176
     1
 74
     2
176
     1
 91
        2
176
     1
 64
     7
176
     1
 65
   257
176
     1
 75
     2
176
     1
175
     1
176
     1
 42
40.0
176
     1
 92
        0
176
     1
 66
   257
176
     1
 43
1.0
176
     1
 76
     1
176
     1
 77
     6
176
     1
 78
     2
176
     1
 67
     7
176
     1
 79
     3
176
     1
170
     0
176
     1
171
     0
176
     1
290
     0
176
     1
 93
        1
176
     1
 44
0.0
176
     1
173
     0
176
     1
1001
ACAD
1000
AcDbSavedByObjectVersion
1070
     0
  0
VISUALSTYLE
  5
3F
102
{ACAD_XDICTIONARY
360
147
102
}
102
{ACAD_REACTORS
330
29
102
}
330
29
100
AcDbVisualStyle
  2
JitterOff
 70
    20
177
     2
291
     1
 71
     2
176
     0
 72
     2
176
     0
 73
     0
176
     0
 90
        0
176
     0
 40
0.6
176
     0
 41
30.0
176
     0
 63
     7
421
 16777215
176
     0
 74
     1
176
     0
 91
        4
176
     0
 64
     7
176
     0
 65
   257
176
     0
 75
     1
176
     0
175
     1
176
     0
 42
1.0
176
     0
 92
       10
176
     2
 66
     7
176
     0
 43
1.0
176
     0
 76
     1
176
     0
 77
     6
176
     0
 78
     2
176
     0
 67
     7
176
     0
 79
     5
176
     0
170
     0
176
     0
171
     0
176
     0
290
     0
176
     0
 93
        1
176
     0
 44
0.0
176
     0
173
     0
176
     0
1001
ACAD
1000
AcDbSavedByObjectVersion
1070
     0
  0
VISUALSTYLE
  5
37
102
{ACAD_XDICTIONARY
360
137
102
}
102
{ACAD_REACTORS
330
29
102
}
330
29
100
AcDbVisualStyle
  2
Linepattern
 70
    14
177
     2
291
     1
 71
     2
176
     1
 72
     2
176
     1
 73
     0
176
     1
 90
        0
176
     1
 40
0.6
176
     1
 41
30.0
176
     1
 63
     7
421
 16777215
176
     1
 74
     1
176
     1
 91
        4
176
     1
 64
     7
176
     1
 65
   257
176
     1
 75
     7
176
     1
175
     7
176
     1
 42
1.0
176
     1
 92
        8
176
     1
 66
     7
176
     1
 43
1.0
176
     1
 76
     1
176
     1
 77
     6
176
     1
 78
     2
176
     1
 67
     7
176
     1
 79
     5
176
     1
170
     0
176
     1
171
     0
176
     1
290
     0
176
     1
 93
        1
176
     1
 44
0.0
176
     1
173
     0
176
     1
1001
ACAD
1000
AcDbSavedByObjectVersion
1070
     0
  0
VISUALSTYLE
  5
40
102
{ACAD_XDICTIONARY
360
149
102
}
102
{ACAD_REACTORS
330
29
102
}
330
29
100
AcDbVisualStyle
  2
OverhangOff
 70
    21
177
     2
291
     1
 71
     2
176
     0
 72
     2
176
     0
 73
     0
176
     0
 90
        0
176
     0
 40
0.6
176
     0
 41
30.0
176
     0
 63
     7
421
 16777215
176
     0
 74
     1
176
     0
 91
        4
176
     0
 64
     7
176
     0
 65
   257
176
     0
 75
     1
176
     0
175
     1
176
     0
 42
1.0
176
     0
 92
        9
176
     2
 66
     7
176
     0
 43
1.0
176
     0
 76
     1
176
     0
 77
     6
176
     0
 78
     2
176
     0
 67
     7
176
     0
 79
     5
176
     0
170
     0
176
     0
171
     0
176
     0
290
     0
176
     0
 93
        1
176
     0
 44
0.0
176
     0
173
     0
176
     0
1001
ACAD
1000
AcDbSavedByObjectVersion
1070
     0
  0
VISUALSTYLE
  5
33
102
{ACAD_XDICTIONARY
360
12F
102
}
102
{ACAD_REACTORS
330
29
102
}
330
29
100
AcDbVisualStyle
  2
Realistic
 70
     8
177
     2
291
     0
 71
     2
176
     1
 72
     3
176
     1
 73
     0
176
     1
 90
        2
176
     1
 40
0.6
176
     1
 41
30.0
176
     1
 63
     7
421
 16777215
176
     1
 74
     0
176
     1
 91
        0
176
     1
 64
     7
176
     1
 65
   257
176
     1
 75
     1
176
     1
175
     1
176
     1
 42
1.0
176
     1
 92
        8
176
     1
 66
   257
176
     1
 43
1.0
176
     1
 76
     1
176
     1
 77
     6
176
     1
 78
     2
176
     1
 67
     7
176
     1
 79
     3
176
     1
170
     0
176
     1
171
     0
176
     1
290
     0
176
     1
 93
       13
176
     1
 44
0.0
176
     1
173
     0
176
     1
1001
ACAD
1000
AcDbSavedByObjectVersion
1070
     0
  0
VISUALSTYLE
  5
3E
102
{ACAD_XDICTIONARY
360
145
102
}
102
{ACAD_REACTORS
330
29
102
}
330
29
100
AcDbVisualStyle
  2
Shaded
 70
    27
177
     2
291
     0
 71
     2
176
     1
 72
     2
176
     1
 73
     1
176
     1
 90
        2
176
     1
 40
0.6
176
     1
 41
30.0
176
     1
 63
     7
421
 16777215
176
     1
 74
     0
176
     1
 91
        4
176
     1
 64
     7
176
     1
 65
   257
176
     1
 75
     1
176
     1
175
     1
176
     1
 42
1.0
176
     1
 92
        8
176
     1
 66
   257
176
     1
 43
1.0
176
     1
 76
     1
176
     1
 77
     6
176
     1
 78
     2
176
     1
 67
     8
425
  7895160
176
     1
 79
     3
176
     1
170
     0
176
     1
171
     0
176
     1
290
     0
176
     1
 93
        5
176
     1
 44
0.0
176
     1
173
     0
176
     1
1001
ACAD
1000
AcDbSavedByObjectVersion
1070
     0
  0
VISUALSTYLE
  5
3D
102
{ACAD_XDICTIONARY
360
143
102
}
102
{ACAD_REACTORS
330
29
102
}
330
29
100
AcDbVisualStyle
  2
Shaded with edges
 70
    26
177
     2
291
     0
 71
     2
176
     1
 72
     2
176
     1
 73
     1
176
     1
 90
        2
176
     1
 40
0.6
176
     1
 41
30.0
176
     1
 63
     7
421
 16777215
176
     1
 74
     1
176
     1
 91
        2
176
     1
 64
     7
176
     1
 65
   257
176
     1
 75
     2
176
     1
175
     1
176
     1
 42
1.0
176
     1
 92
        8
176
     1
 66
   257
176
     1
 43
1.0
176
     1
 76
     1
176
     1
 77
     6
176
     1
 78
     2
176
     1
 67
     7
176
     1
 79
     3
176
     1
170
     0
176
     1
171
     0
176
     1
290
     0
176
     1
 93
        5
176
     1
 44
0.0
176
     1
173
     0
176
     1
1001
ACAD
1000
AcDbSavedByObjectVersion
1070
     0
  0
VISUALSTYLE
  5
3A
102
{ACAD_XDICTIONARY
360
13D
102
}
102
{ACAD_REACTORS
330
29
102
}
330
29
100
AcDbVisualStyle
  2
Shades of Gray
 70
    23
177
     2
291
     0
 71
     2
176
     1
 72
     2
176
     1
 73
     3
176
     1
 90
        0
176
     1
 40
0.6
176
     1
 41
30.0
176
     1
 63
     7
421
 16777215
176
     1
 74
     2
176
     1
 91
        2
176
     1
 64
     7
176
     1
 65
     7
176
     1
 75
     1
176
     1
175
     1
176
     1
 42
40.0
176
     1
 92
        8
176
     1
 66
     7
176
     1
 43
1.0
176
     1
 76
     1
176
     1
 77
     6
176
     1
 78
     2
176
     1
 67
     7
176
     1
 79
     3
176
     1
170
     0
176
     1
171
     0
176
     1
290
     0
176
     1
 93
        1
176
     1
 44
0.0
176
     1
173
     0
176
     1
1001
ACAD
1000
AcDbSavedByObjectVersion
1070
     0
  0
VISUALSTYLE
  5
3B
102
{ACAD_XDICTIONARY
360
13F
102
}
102
{ACAD_REACTORS
330
29
102
}
330
29
100
AcDbVisualStyle
  2
Sketchy
 70
    24
177
     2
291
     0
 71
     1
176
     1
 72
     2
176
     1
 73
     2
176
     1
 90
        0
176
     1
 40
0.6
176
     1
 41
30.0
176
     1
 63
     7
421
 16777215
176
     1
 74
     2
176
     1
 91
        2
176
     1
 64
     7
176
     1
 65
     7
176
     1
 75
     1
176
     1
175
     1
176
     1
 42
40.0
176
     1
 92
       11
176
     1
 66
     7
176
     1
 43
1.0
176
     1
 76
     1
176
     1
 77
     6
176
     1
 78
     2
176
     1
 67
     7
176
     1
 79
     6
176
     1
170
     0
176
     1
171
     0
176
     1
290
     0
176
     1
 93
        1
176
     1
 44
0.0
176
     1
173
     0
176
     1
1001
ACAD
1000
AcDbSavedByObjectVersion
1070
     0
  0
VISUALSTYLE
  5
36
102
{ACAD_XDICTIONARY
360
135
102
}
102
{ACAD_REACTORS
330
29
102
}
330
29
100
AcDbVisualStyle
  2
Thicken
 70
    13
177
     2
291
     1
 71
     2
176
     1
 72
     2
176
     1
 73
     0
176
     1
 90
        0
176
     1
 40
0.6
176
     1
 41
30.0
176
     1
 63
     7
421
 16777215
176
     1
 74
     1
176
     1
 91
        4
176
     1
 64
     7
176
     1
 65
   257
176
     1
 75
     1
176
     1
175
     1
176
     1
 42
1.0
176
     1
 92
       12
176
     1
 66
     7
176
     1
 43
1.0
176
     1
 76
     1
176
     1
 77
     6
176
     1
 78
     2
176
     1
 67
     7
176
     1
 79
     5
176
     1
170
     0
176
     1
171
     0
176
     1
290
     0
176
     1
 93
        1
176
     1
 44
0.0
176
     1
173
     0
176
     1
1001
ACAD
1000
AcDbSavedByObjectVersion
1070
     0
  0
VISUALSTYLE
  5
30
102
{ACAD_XDICTIONARY
360
129
102
}
102
{ACAD_REACTORS
330
29
102
}
330
29
100
AcDbVisualStyle
  2
Wireframe
 70
     5
177
     2
291
     0
 71
     0
176
     1
 72
     2
176
     1
 73
     0
176
     1
 90
        0
176
     1
 40
0.6
176
     1
 41
30.0
176
     1
 63
     7
421
 16777215
176
     1
 74
     1
176
     1
 91
        4
176
     1
 64
     7
176
     1
 65
   257
176
     1
 75
     1
176
     1
175
     1
176
     1
 42
1.0
176
     1
 92
        0
176
     1
 66
   257
176
     1
 43
1.0
176
     1
 76
     1
176
     1
 77
     6
176
     1
 78
     2
176
     1
 67
     7
176
     1
 79
     3
176
     1
170
     0
176
     1
171
     0
176
     1
290
     0
176
     1
 93
        1
176
     1
 44
0.0
176
     1
173
     0
176
     1
1001
ACAD
1000
AcDbSavedByObjectVersion
1070
     0
  0
VISUALSTYLE
  5
3C
102
{ACAD_XDICTIONARY
360
141
102
}
102
{ACAD_REACTORS
330
29
102
}
330
29
100
AcDbVisualStyle
  2
X-Ray
 70
    25
177
     2
291
     0
 71
     2
176
     1
 72
     2
176
     1
 73
     1
176
     1
 90
        1
176
     1
 40
0.5
176
     1
 41
30.0
176
     1
 63
     7
421
 16777215
176
     1
 74
     1
176
     1
 91
        0
176
     1
 64
     7
176
     1
 65
   257
176
     1
 75
     1
176
     1
175
     1
176
     1
 42
1.0
176
     1
 92
        8
176
     1
 66
     7
176
     1
 43
1.0
176
     1
 76
     1
176
     1
 77
     6
176
     1
 78
     2
176
     1
 67
     7
176
     1
 79
     3
176
     1
170
     0
176
     1
171
     0
176
     1
290
     0
176
     1
 93
       13
176
     1
 44
0.0
176
     1
173
     0
176
     1
1001
ACAD
1000
AcDbSavedByObjectVersion
1070
     0
  0
DICTIONARYVAR
  5
119
102
{ACAD_REACTORS
330
114
102
}
330
114
100
DictionaryVariables
280
     0
  1
1:1
  0
DICTIONARYVAR
  5
116
102
{ACAD_REACTORS
330
114
102
}
330
114
100
DictionaryVariables
280
     0
  1
STANDARD
  0
DICTIONARYVAR
  5
115
102
{ACAD_REACTORS
330
114
102
}
330
114
100
DictionaryVariables
280
     0
  1
STANDARD
  0
DICTIONARYVAR
  5
117
102
{ACAD_REACTORS
330
114
102
}
330
114
100
DictionaryVariables
280
     0
  1
Imperial24
  0
DICTIONARYVAR
  5
118
102
{ACAD_REACTORS
330
114
102
}
330
114
100
DictionaryVariables
280
     0
  1
Imperial24
  0
DICTIONARY
  5
151
330
6B
100
AcDbDictionary
280
     1
281
     1
  3
ACAD_XREC_ROUNDTRIP
360
152
  0
DICTIONARY
  5
1A
330
19
100
AcDbDictionary
280
     1
281
     1
  3
BUMPTILE
360
1C
  3
DIFFUSETILE
360
1B
  3
OPACITYTILE
360
1F
  3
REFLECTIONTILE
360
1E
  3
REFRACTIONTILE
360
20
  3
SPECULARTILE
360
1D
  0
DICTIONARY
  5
12
330
11
100
AcDbDictionary
280
     1
281
     1
  3
BUMPTILE
360
14
  3
DIFFUSETILE
360
13
  3
OPACITYTILE
360
17
  3
REFLECTIONTILE
360
16
  3
REFRACTIONTILE
360
18
  3
SPECULARTILE
360
15
  0
DICTIONARY
  5
22
330
21
100
AcDbDictionary
280
     1
281
     1
  3
BUMPTILE
360
24
  3
DIFFUSETILE
360
23
  3
OPACITYTILE
360
27
  3
REFLECTIONTILE
360
26
  3
REFRACTIONTILE
360
28
  3
SPECULARTILE
360
25
  0
DICTIONARY
  5
14D
330
67
100
AcDbDictionary
280
     1
281
     1
  3
ACAD_XREC_ROUNDTRIP
360
14E
  0
DICTIONARY
  5
14F
330
69
100
AcDbDictionary
280
     1
281
     1
  3
ACAD_XREC_ROUNDTRIP
360
150
  0
DICTIONARY
  5
11A
330
65
100
AcDbDictionary
280
     1
281
     1
  3
ACAD_ROUNDTRIP_2008_TABLESTYLE_CELLSTYLEMAP
360
11B
  0
DICTIONARY
  5
127
330
2F
100
AcDbDictionary
280
     1
281
     1
  3
ACAD_XREC_ROUNDTRIP
360
128
  0
DICTIONARY
  5
125
330
2E
100
AcDbDictionary
280
     1
281
     1
  3
ACAD_XREC_ROUNDTRIP
360
126
  0
DICTIONARY
  5
133
330
35
100
AcDbDictionary
280
     1
281
     1
  3
ACAD_XREC_ROUNDTRIP
360
134
  0
DICTIONARY
  5
13B
330
39
100
AcDbDictionary
280
     1
281
     1
  3
ACAD_XREC_ROUNDTRIP
360
13C
  0
DICTIONARY
  5
12D
330
32
100
AcDbDictionary
280
     1
281
     1
  3
ACAD_XREC_ROUNDTRIP
360
12E
  0
DICTIONARY
  5
131
330
34
100
AcDbDictionary
280
     1
281
     1
  3
ACAD_XREC_ROUNDTRIP
360
132
  0
DICTIONARY
  5
14B
330
41
100
AcDbDictionary
280
     1
281
     1
  3
ACAD_XREC_ROUNDTRIP
360
14C
  0
DICTIONARY
  5
139
330
38
100
AcDbDictionary
280
     1
281
     1
  3
ACAD_XREC_ROUNDTRIP
360
13A
  0
DICTIONARY
  5
11D
330
2A
100
AcDbDictionary
280
     1
281
     1
  3
ACAD_XREC_ROUNDTRIP
360
11E
  0
DICTIONARY
  5
11F
330
2B
100
AcDbDictionary
280
     1
281
     1
  3
ACAD_XREC_ROUNDTRIP
360
120
  0
DICTIONARY
  5
121
330
2C
100
AcDbDictionary
280
     1
281
     1
  3
ACAD_XREC_ROUNDTRIP
360
122
  0
DICTIONARY
  5
123
330
2D
100
AcDbDictionary
280
     1
281
     1
  3
ACAD_XREC_ROUNDTRIP
360
124
  0
DICTIONARY
  5
12B
330
31
100
AcDbDictionary
280
     1
281
     1
  3
ACAD_XREC_ROUNDTRIP
360
12C
  0
DICTIONARY
  5
147
330
3F
100
AcDbDictionary
280
     1
281
     1
  3
ACAD_XREC_ROUNDTRIP
360
148
  0
DICTIONARY
  5
137
330
37
100
AcDbDictionary
280
     1
281
     1
  3
ACAD_XREC_ROUNDTRIP
360
138
  0
DICTIONARY
  5
149
330
40
100
AcDbDictionary
280
     1
281
     1
  3
ACAD_XREC_ROUNDTRIP
360
14A
  0
DICTIONARY
  5
12F
330
33
100
AcDbDictionary
280
     1
281
     1
  3
ACAD_XREC_ROUNDTRIP
360
130
  0
DICTIONARY
  5
145
330
3E
100
AcDbDictionary
280
     1
281
     1
  3
ACAD_XREC_ROUNDTRIP
360
146
  0
DICTIONARY
  5
143
330
3D
100
AcDbDictionary
280
     1
281
     1
  3
ACAD_XREC_ROUNDTRIP
360
144
  0
DICTIONARY
  5
13D
330
3A
100
AcDbDictionary
280
     1
281
     1
  3
ACAD_XREC_ROUNDTRIP
360
13E
  0
DICTIONARY
  5
13F
330
3B
100
AcDbDictionary
280
     1
281
     1
  3
ACAD_XREC_ROUNDTRIP
360
140
  0
DICTIONARY
  5
135
330
36
100
AcDbDictionary
280
     1
281
     1
  3
ACAD_XREC_ROUNDTRIP
360
136
  0
DICTIONARY
  5
129
330
30
100
AcDbDictionary
280
     1
281
     1
  3
ACAD_XREC_ROUNDTRIP
360
12A
  0
DICTIONARY
  5
141
330
3C
100
AcDbDictionary
280
     1
281
     1
  3
ACAD_XREC_ROUNDTRIP
360
142
  0
XRECORD
  5
152
102
{ACAD_REACTORS
330
151
102
}
330
151
100
AcDbXrecord
280
     1
102
DISPLAYNAME
  1
Imperial24
102
FLAGS
 90
        0
  0
XRECORD
  5
1C
102
{ACAD_REACTORS
330
1A
102
}
330
1A
100
AcDbXrecord
280
     1
270
     1
271
     1
  0
XRECORD
  5
1B
102
{ACAD_REACTORS
330
1A
102
}
330
1A
100
AcDbXrecord
280
     1
270
     1
271
     1
  0
XRECORD
  5
1F
102
{ACAD_REACTORS
330
1A
102
}
330
1A
100
AcDbXrecord
280
     1
270
     1
271
     1
  0
XRECORD
  5
1E
102
{ACAD_REACTORS
330
1A
102
}
330
1A
100
AcDbXrecord
280
     1
270
     1
271
     1
  0
XRECORD
  5
20
102
{ACAD_REACTORS
330
1A
102
}
330
1A
100
AcDbXrecord
280
     1
270
     1
271
     1
  0
XRECORD
  5
1D
102
{ACAD_REACTORS
330
1A
102
}
330
1A
100
AcDbXrecord
280
     1
270
     1
271
     1
  0
XRECORD
  5
14
102
{ACAD_REACTORS
330
12
102
}
330
12
100
AcDbXrecord
280
     1
270
     1
271
     1
  0
XRECORD
  5
13
102
{ACAD_REACTORS
330
12
102
}
330
12
100
AcDbXrecord
280
     1
270
     1
271
     1
  0
XRECORD
  5
17
102
{ACAD_REACTORS
330
12
102
}
330
12
100
AcDbXrecord
280
     1
270
     1
271
     1
  0
XRECORD
  5
16
102
{ACAD_REACTORS
330
12
102
}
330
12
100
AcDbXrecord
280
     1
270
     1
271
     1
  0
XRECORD
  5
18
102
{ACAD_REACTORS
330
12
102
}
330
12
100
AcDbXrecord
280
     1
270
     1
271
     1
  0
XRECORD
  5
15
102
{ACAD_REACTORS
330
12
102
}
330
12
100
AcDbXrecord
280
     1
270
     1
271
     1
  0
XRECORD
  5
24
102
{ACAD_REACTORS
330
22
102
}
330
22
100
AcDbXrecord
280
     1
270
     1
271
     1
  0
XRECORD
  5
23
102
{ACAD_REACTORS
330
22
102
}
330
22
100
AcDbXrecord
280
     1
270
     1
271
     1
  0
XRECORD
  5
27
102
{ACAD_REACTORS
330
22
102
}
330
22
100
AcDbXrecord
280
     1
270
     1
271
     1
  0
XRECORD
  5
26
102
{ACAD_REACTORS
330
22
102
}
330
22
100
AcDbXrecord
280
     1
270
     1
271
     1
  0
XRECORD
  5
28
102
{ACAD_REACTORS
330
22
102
}
330
22
100
AcDbXrecord
280
     1
270
     1
271
     1
  0
XRECORD
  5
25
102
{ACAD_REACTORS
330
22
102
}
330
22
100
AcDbXrecord
280
     1
270
     1
271
     1
  0
XRECORD
  5
14E
102
{ACAD_REACTORS
330
14D
102
}
330
14D
100
AcDbXrecord
280
     1
102
ACAD_ROUNDTRIP_2012_MLEADER_STYLE
298
     1
  0
XRECORD
  5
150
102
{ACAD_REACTORS
330
14F
102
}
330
14F
100
AcDbXrecord
280
     1
102
DISPLAYNAME
  1
Imperial24
102
FLAGS
 90
        0
  0
CELLSTYLEMAP
  5
11B
102
{ACAD_REACTORS
330
11A
102
}
330
11A
100
AcDbCellStyleMap
 90
        3
300
CELLSTYLE
  1
TABLEFORMAT_BEGIN
 90
        5
170
     1
 91
        0
 92
    32768
 62
   257
 93
        1
300
CONTENTFORMAT
  1
CONTENTFORMAT_BEGIN
 90
        0
 91
        0
 92
      512
 93
        0
300

 40
0.0
140
1.0
 94
        5
 62
     0
340
55
144
0.25
309
CONTENTFORMAT_END
171
     0
 94
        0
309
TABLEFORMAT_END
  1
CELLSTYLE_BEGIN
 90
        1
 91
        1
300
_TITLE
309
CELLSTYLE_END
300
CELLSTYLE
  1
TABLEFORMAT_BEGIN
 90
        5
170
     1
 91
        0
 92
        0
 62
   257
 93
        1
300
CONTENTFORMAT
  1
CONTENTFORMAT_BEGIN
 90
        0
 91
        0
 92
      512
 93
        0
300

 40
0.0
140
1.0
 94
        5
 62
     0
340
55
144
0.18
309
CONTENTFORMAT_END
171
     0
 94
        0
309
TABLEFORMAT_END
  1
CELLSTYLE_BEGIN
 90
        2
 91
        1
300
_HEADER
309
CELLSTYLE_END
300
CELLSTYLE
  1
TABLEFORMAT_BEGIN
 90
        5
170
     1
 91
        0
 92
        0
 62
   257
 93
        1
300
CONTENTFORMAT
  1
CONTENTFORMAT_BEGIN
 90
        0
 91
        0
 92
      512
 93
        0
300

 40
0.0
140
1.0
 94
        2
 62
     0
340
55
144
0.18
309
CONTENTFORMAT_END
171
     0
 94
        0
309
TABLEFORMAT_END
  1
CELLSTYLE_BEGIN
 90
        3
 91
        2
300
_DATA
309
CELLSTYLE_END
  0
XRECORD
  5
128
102
{ACAD_REACTORS
330
127
102
}
330
127
100
AcDbXrecord
280
     1
102
RTVSPost2010Prop28
280
     1
102
RTVSPost2010PropOp28
 70
     1
102
RTVSPost2010Prop29
280
     1
102
RTVSPost2010PropOp29
 70
     1
102
RTVSPost2010Prop30
280
     0
102
RTVSPost2010PropOp30
 70
     1
102
RTVSPost2010Prop31
280
     0
102
RTVSPost2010PropOp31
 70
     1
102
RTVSPost2010Prop32
280
     0
102
RTVSPost2010PropOp32
 70
     1
102
RTVSPost2010Prop33
280
     0
102
RTVSPost2010PropOp33
 70
     1
102
RTVSPost2010Prop34
280
     0
102
RTVSPost2010PropOp34
 70
     1
102
RTVSPost2010Prop35
280
     0
102
RTVSPost2010PropOp35
 70
     1
102
RTVSPost2010Prop36
280
     0
102
RTVSPost2010PropOp36
 70
     1
102
RTVSPost2010Prop37
 90
       50
102
RTVSPost2010PropOp37
 70
     1
102
RTVSPost2010Prop38
140
0.0
102
RTVSPost2010PropOp38
 70
     1
102
RTVSPost2010Prop39
140
1.0
102
RTVSPost2010PropOp39
 70
     1
102
RTVSPost2010Prop40
 90
        0
102
RTVSPost2010PropOp40
 70
     1
102
RTVSPost2010Prop41ColorIndex
 90
       18
102
RTVSPost2010Prop41ColorRGB
 90
        0
102
RTVSPost2010PropOp41
 70
     1
102
RTVSPost2010Prop42
 90
       50
102
RTVSPost2010PropOp42
 70
     1
102
RTVSPost2010Prop43
 90
        3
102
RTVSPost2010PropOp43
 70
     1
102
RTVSPost2010Prop44ColorIndex
 90
        5
102
RTVSPost2010Prop44ColorRGB
 90
      255
102
RTVSPost2010PropOp44
 70
     1
102
RTVSPost2010Prop45
280
     0
102
RTVSPost2010PropOp45
 70
     1
102
RTVSPost2010Prop46
 90
       50
102
RTVSPost2010PropOp46
 70
     1
102
RTVSPost2010Prop47
 90
       50
102
RTVSPost2010PropOp47
 70
     1
102
RTVSPost2010Prop48
 90
       50
102
RTVSPost2010PropOp48
 70
     1
102
RTVSPost2010Prop49
280
     0
102
RTVSPost2010PropOp49
 70
     1
102
RTVSPost2010Prop50
 90
       50
102
RTVSPost2010PropOp50
 70
     1
102
RTVSPost2010Prop51ColorIndex
 90
      256
102
RTVSPost2010Prop51ColorRGB
 90
-16777216
102
RTVSPost2010PropOp51
 70
     0
102
RTVSPost2010Prop52
140
1.0
102
RTVSPost2010PropOp52
 70
     0
102
RTVSPost2010Prop53
 90
        2
102
RTVSPost2010PropOp53
 70
     1
102
RTVSPost2010Prop54
  1
strokes_ogs.tif
102
RTVSPost2010PropOp54
 70
     1
102
RTVSPost2010Prop55
280
     0
102
RTVSPost2010PropOp55
 70
     1
102
RTVSPost2010Prop56
140
1.0
102
RTVSPost2010PropOp56
 70
     1
102
RTVSPost2010Prop57
140
1.0
102
RTVSPost2010PropOp57
 70
     1
  0
XRECORD
  5
126
102
{ACAD_REACTORS
330
125
102
}
330
125
100
AcDbXrecord
280
     1
102
RTVSPost2010Prop28
280
     0
102
RTVSPost2010PropOp28
 70
     1
102
RTVSPost2010Prop29
280
     1
102
RTVSPost2010PropOp29
 70
     1
102
RTVSPost2010Prop30
280
     1
102
RTVSPost2010PropOp30
 70
     1
102
RTVSPost2010Prop31
280
     0
102
RTVSPost2010PropOp31
 70
     1
102
RTVSPost2010Prop32
280
     0
102
RTVSPost2010PropOp32
 70
     1
102
RTVSPost2010Prop33
280
     0
102
RTVSPost2010PropOp33
 70
     1
102
RTVSPost2010Prop34
280
     0
102
RTVSPost2010PropOp34
 70
     1
102
RTVSPost2010Prop35
280
     0
102
RTVSPost2010PropOp35
 70
     1
102
RTVSPost2010Prop36
280
     0
102
RTVSPost2010PropOp36
 70
     1
102
RTVSPost2010Prop37
 90
       50
102
RTVSPost2010PropOp37
 70
     1
102
RTVSPost2010Prop38
140
0.0
102
RTVSPost2010PropOp38
 70
     1
102
RTVSPost2010Prop39
140
1.0
102
RTVSPost2010PropOp39
 70
     1
102
RTVSPost2010Prop40
 90
        0
102
RTVSPost2010PropOp40
 70
     1
102
RTVSPost2010Prop41ColorIndex
 90
       18
102
RTVSPost2010Prop41ColorRGB
 90
        0
102
RTVSPost2010PropOp41
 70
     1
102
RTVSPost2010Prop42
 90
       50
102
RTVSPost2010PropOp42
 70
     1
102
RTVSPost2010Prop43
 90
        3
102
RTVSPost2010PropOp43
 70
     1
102
RTVSPost2010Prop44ColorIndex
 90
        5
102
RTVSPost2010Prop44ColorRGB
 90
      255
102
RTVSPost2010PropOp44
 70
     1
102
RTVSPost2010Prop45
280
     0
102
RTVSPost2010PropOp45
 70
     1
102
RTVSPost2010Prop46
 90
       50
102
RTVSPost2010PropOp46
 70
     1
102
RTVSPost2010Prop47
 90
       50
102
RTVSPost2010PropOp47
 70
     1
102
RTVSPost2010Prop48
 90
       50
102
RTVSPost2010PropOp48
 70
     1
102
RTVSPost2010Prop49
280
     0
102
RTVSPost2010PropOp49
 70
     1
102
RTVSPost2010Prop50
 90
       50
102
RTVSPost2010PropOp50
 70
     1
102
RTVSPost2010Prop51ColorIndex
 90
      256
102
RTVSPost2010Prop51ColorRGB
 90
-16777216
102
RTVSPost2010PropOp51
 70
     0
102
RTVSPost2010Prop52
140
1.0
102
RTVSPost2010PropOp52
 70
     0
102
RTVSPost2010Prop53
 90
        2
102
RTVSPost2010PropOp53
 70
     1
102
RTVSPost2010Prop54
  1
strokes_ogs.tif
102
RTVSPost2010PropOp54
 70
     1
102
RTVSPost2010Prop55
280
     0
102
RTVSPost2010PropOp55
 70
     1
102
RTVSPost2010Prop56
140
1.0
102
RTVSPost2010PropOp56
 70
     1
102
RTVSPost2010Prop57
140
1.0
102
RTVSPost2010PropOp57
 70
     1
  0
XRECORD
  5
134
102
{ACAD_REACTORS
330
133
102
}
330
133
100
AcDbXrecord
280
     1
102
RTVSPost2010Prop28
280
     0
102
RTVSPost2010PropOp28
 70
     1
102
RTVSPost2010Prop29
280
     1
102
RTVSPost2010PropOp29
 70
     1
102
RTVSPost2010Prop30
280
     1
102
RTVSPost2010PropOp30
 70
     1
102
RTVSPost2010Prop31
280
     0
102
RTVSPost2010PropOp31
 70
     1
102
RTVSPost2010Prop32
280
     0
102
RTVSPost2010PropOp32
 70
     1
102
RTVSPost2010Prop33
280
     0
102
RTVSPost2010PropOp33
 70
     1
102
RTVSPost2010Prop34
280
     0
102
RTVSPost2010PropOp34
 70
     1
102
RTVSPost2010Prop35
280
     0
102
RTVSPost2010PropOp35
 70
     1
102
RTVSPost2010Prop36
280
     0
102
RTVSPost2010PropOp36
 70
     1
102
RTVSPost2010Prop37
 90
       50
102
RTVSPost2010PropOp37
 70
     1
102
RTVSPost2010Prop38
140
0.0
102
RTVSPost2010PropOp38
 70
     1
102
RTVSPost2010Prop39
140
1.0
102
RTVSPost2010PropOp39
 70
     1
102
RTVSPost2010Prop40
 90
        0
102
RTVSPost2010PropOp40
 70
     1
102
RTVSPost2010Prop41ColorIndex
 90
       18
102
RTVSPost2010Prop41ColorRGB
 90
        0
102
RTVSPost2010PropOp41
 70
     1
102
RTVSPost2010Prop42
 90
       50
102
RTVSPost2010PropOp42
 70
     1
102
RTVSPost2010Prop43
 90
        3
102
RTVSPost2010PropOp43
 70
     1
102
RTVSPost2010Prop44ColorIndex
 90
        5
102
RTVSPost2010Prop44ColorRGB
 90
      255
102
RTVSPost2010PropOp44
 70
     1
102
RTVSPost2010Prop45
280
     0
102
RTVSPost2010PropOp45
 70
     1
102
RTVSPost2010Prop46
 90
       50
102
RTVSPost2010PropOp46
 70
     1
102
RTVSPost2010Prop47
 90
       50
102
RTVSPost2010PropOp47
 70
     1
102
RTVSPost2010Prop48
 90
       50
102
RTVSPost2010PropOp48
 70
     1
102
RTVSPost2010Prop49
280
     0
102
RTVSPost2010PropOp49
 70
     1
102
RTVSPost2010Prop50
 90
       50
102
RTVSPost2010PropOp50
 70
     1
102
RTVSPost2010Prop51ColorIndex
 90
      256
102
RTVSPost2010Prop51ColorRGB
 90
-16777216
102
RTVSPost2010PropOp51
 70
     0
102
RTVSPost2010Prop52
140
1.0
102
RTVSPost2010PropOp52
 70
     0
102
RTVSPost2010Prop53
 90
        2
102
RTVSPost2010PropOp53
 70
     1
102
RTVSPost2010Prop54
  1
strokes_ogs.tif
102
RTVSPost2010PropOp54
 70
     1
102
RTVSPost2010Prop55
280
     0
102
RTVSPost2010PropOp55
 70
     1
102
RTVSPost2010Prop56
140
1.0
102
RTVSPost2010PropOp56
 70
     1
102
RTVSPost2010Prop57
140
1.0
102
RTVSPost2010PropOp57
 70
     1
  0
XRECORD
  5
13C
102
{ACAD_REACTORS
330
13B
102
}
330
13B
100
AcDbXrecord
280
     1
102
RTVSPost2010Prop28
280
     0
102
RTVSPost2010PropOp28
 70
     1
102
RTVSPost2010Prop29
280
     1
102
RTVSPost2010PropOp29
 70
     1
102
RTVSPost2010Prop30
280
     1
102
RTVSPost2010PropOp30
 70
     1
102
RTVSPost2010Prop31
280
     0
102
RTVSPost2010PropOp31
 70
     1
102
RTVSPost2010Prop32
280
     0
102
RTVSPost2010PropOp32
 70
     1
102
RTVSPost2010Prop33
280
     0
102
RTVSPost2010PropOp33
 70
     1
102
RTVSPost2010Prop34
280
     0
102
RTVSPost2010PropOp34
 70
     1
102
RTVSPost2010Prop35
280
     0
102
RTVSPost2010PropOp35
 70
     1
102
RTVSPost2010Prop36
280
     0
102
RTVSPost2010PropOp36
 70
     1
102
RTVSPost2010Prop37
 90
       50
102
RTVSPost2010PropOp37
 70
     1
102
RTVSPost2010Prop38
140
0.0
102
RTVSPost2010PropOp38
 70
     1
102
RTVSPost2010Prop39
140
1.0
102
RTVSPost2010PropOp39
 70
     1
102
RTVSPost2010Prop40
 90
        0
102
RTVSPost2010PropOp40
 70
     1
102
RTVSPost2010Prop41ColorIndex
 90
       18
102
RTVSPost2010Prop41ColorRGB
 90
        0
102
RTVSPost2010PropOp41
 70
     1
102
RTVSPost2010Prop42
 90
       50
102
RTVSPost2010PropOp42
 70
     1
102
RTVSPost2010Prop43
 90
        3
102
RTVSPost2010PropOp43
 70
     1
102
RTVSPost2010Prop44ColorIndex
 90
        5
102
RTVSPost2010Prop44ColorRGB
 90
      255
102
RTVSPost2010PropOp44
 70
     1
102
RTVSPost2010Prop45
280
     0
102
RTVSPost2010PropOp45
 70
     1
102
RTVSPost2010Prop46
 90
       50
102
RTVSPost2010PropOp46
 70
     1
102
RTVSPost2010Prop47
 90
       50
102
RTVSPost2010PropOp47
 70
     1
102
RTVSPost2010Prop48
 90
       50
102
RTVSPost2010PropOp48
 70
     1
102
RTVSPost2010Prop49
280
     0
102
RTVSPost2010PropOp49
 70
     1
102
RTVSPost2010Prop50
 90
       50
102
RTVSPost2010PropOp50
 70
     1
102
RTVSPost2010Prop51ColorIndex
 90
      256
102
RTVSPost2010Prop51ColorRGB
 90
-16777216
102
RTVSPost2010PropOp51
 70
     0
102
RTVSPost2010Prop52
140
1.0
102
RTVSPost2010PropOp52
 70
     0
102
RTVSPost2010Prop53
 90
        2
102
RTVSPost2010PropOp53
 70
     1
102
RTVSPost2010Prop54
  1
strokes_ogs.tif
102
RTVSPost2010PropOp54
 70
     1
102
RTVSPost2010Prop55
280
     0
102
RTVSPost2010PropOp55
 70
     1
102
RTVSPost2010Prop56
140
1.0
102
RTVSPost2010PropOp56
 70
     1
102
RTVSPost2010Prop57
140
1.0
102
RTVSPost2010PropOp57
 70
     1
  0
XRECORD
  5
12E
102
{ACAD_REACTORS
330
12D
102
}
330
12D
100
AcDbXrecord
280
     1
102
RTVSPost2010Prop28
280
     0
102
RTVSPost2010PropOp28
 70
     1
102
RTVSPost2010Prop29
280
     1
102
RTVSPost2010PropOp29
 70
     1
102
RTVSPost2010Prop30
280
     1
102
RTVSPost2010PropOp30
 70
     1
102
RTVSPost2010Prop31
280
     0
102
RTVSPost2010PropOp31
 70
     1
102
RTVSPost2010Prop32
280
     0
102
RTVSPost2010PropOp32
 70
     1
102
RTVSPost2010Prop33
280
     0
102
RTVSPost2010PropOp33
 70
     1
102
RTVSPost2010Prop34
280
     0
102
RTVSPost2010PropOp34
 70
     1
102
RTVSPost2010Prop35
280
     0
102
RTVSPost2010PropOp35
 70
     1
102
RTVSPost2010Prop36
280
     0
102
RTVSPost2010PropOp36
 70
     1
102
RTVSPost2010Prop37
 90
       50
102
RTVSPost2010PropOp37
 70
     1
102
RTVSPost2010Prop38
140
0.0
102
RTVSPost2010PropOp38
 70
     1
102
RTVSPost2010Prop39
140
1.0
102
RTVSPost2010PropOp39
 70
     1
102
RTVSPost2010Prop40
 90
        0
102
RTVSPost2010PropOp40
 70
     1
102
RTVSPost2010Prop41ColorIndex
 90
       18
102
RTVSPost2010Prop41ColorRGB
 90
        0
102
RTVSPost2010PropOp41
 70
     1
102
RTVSPost2010Prop42
 90
       50
102
RTVSPost2010PropOp42
 70
     1
102
RTVSPost2010Prop43
 90
        3
102
RTVSPost2010PropOp43
 70
     1
102
RTVSPost2010Prop44ColorIndex
 90
        5
102
RTVSPost2010Prop44ColorRGB
 90
      255
102
RTVSPost2010PropOp44
 70
     1
102
RTVSPost2010Prop45
280
     0
102
RTVSPost2010PropOp45
 70
     1
102
RTVSPost2010Prop46
 90
       50
102
RTVSPost2010PropOp46
 70
     1
102
RTVSPost2010Prop47
 90
       50
102
RTVSPost2010PropOp47
 70
     1
102
RTVSPost2010Prop48
 90
       50
102
RTVSPost2010PropOp48
 70
     1
102
RTVSPost2010Prop49
280
     0
102
RTVSPost2010PropOp49
 70
     1
102
RTVSPost2010Prop50
 90
       50
102
RTVSPost2010PropOp50
 70
     1
102
RTVSPost2010Prop51ColorIndex
 90
      256
102
RTVSPost2010Prop51ColorRGB
 90
-16777216
102
RTVSPost2010PropOp51
 70
     0
102
RTVSPost2010Prop52
140
1.0
102
RTVSPost2010PropOp52
 70
     0
102
RTVSPost2010Prop53
 90
        2
102
RTVSPost2010PropOp53
 70
     1
102
RTVSPost2010Prop54
  1
strokes_ogs.tif
102
RTVSPost2010PropOp54
 70
     1
102
RTVSPost2010Prop55
280
     0
102
RTVSPost2010PropOp55
 70
     1
102
RTVSPost2010Prop56
140
1.0
102
RTVSPost2010PropOp56
 70
     1
102
RTVSPost2010Prop57
140
1.0
102
RTVSPost2010PropOp57
 70
     1
  0
XRECORD
  5
132
102
{ACAD_REACTORS
330
131
102
}
330
131
100
AcDbXrecord
280
     1
102
RTVSPost2010Prop28
280
     0
102
RTVSPost2010PropOp28
 70
     1
102
RTVSPost2010Prop29
280
     1
102
RTVSPost2010PropOp29
 70
     1
102
RTVSPost2010Prop30
280
     1
102
RTVSPost2010PropOp30
 70
     1
102
RTVSPost2010Prop31
280
     0
102
RTVSPost2010PropOp31
 70
     1
102
RTVSPost2010Prop32
280
     0
102
RTVSPost2010PropOp32
 70
     1
102
RTVSPost2010Prop33
280
     0
102
RTVSPost2010PropOp33
 70
     1
102
RTVSPost2010Prop34
280
     0
102
RTVSPost2010PropOp34
 70
     1
102
RTVSPost2010Prop35
280
     0
102
RTVSPost2010PropOp35
 70
     1
102
RTVSPost2010Prop36
280
     0
102
RTVSPost2010PropOp36
 70
     1
102
RTVSPost2010Prop37
 90
       50
102
RTVSPost2010PropOp37
 70
     1
102
RTVSPost2010Prop38
140
0.0
102
RTVSPost2010PropOp38
 70
     1
102
RTVSPost2010Prop39
140
1.0
102
RTVSPost2010PropOp39
 70
     1
102
RTVSPost2010Prop40
 90
        0
102
RTVSPost2010PropOp40
 70
     1
102
RTVSPost2010Prop41ColorIndex
 90
       18
102
RTVSPost2010Prop41ColorRGB
 90
        0
102
RTVSPost2010PropOp41
 70
     1
102
RTVSPost2010Prop42
 90
       50
102
RTVSPost2010PropOp42
 70
     1
102
RTVSPost2010Prop43
 90
        3
102
RTVSPost2010PropOp43
 70
     1
102
RTVSPost2010Prop44ColorIndex
 90
        5
102
RTVSPost2010Prop44ColorRGB
 90
      255
102
RTVSPost2010PropOp44
 70
     1
102
RTVSPost2010Prop45
280
     0
102
RTVSPost2010PropOp45
 70
     1
102
RTVSPost2010Prop46
 90
       50
102
RTVSPost2010PropOp46
 70
     1
102
RTVSPost2010Prop47
 90
       50
102
RTVSPost2010PropOp47
 70
     1
102
RTVSPost2010Prop48
 90
       50
102
RTVSPost2010PropOp48
 70
     1
102
RTVSPost2010Prop49
280
     0
102
RTVSPost2010PropOp49
 70
     1
102
RTVSPost2010Prop50
 90
       50
102
RTVSPost2010PropOp50
 70
     1
102
RTVSPost2010Prop51ColorIndex
 90
      256
102
RTVSPost2010Prop51ColorRGB
 90
-16777216
102
RTVSPost2010PropOp51
 70
     0
102
RTVSPost2010Prop52
140
1.0
102
RTVSPost2010PropOp52
 70
     0
102
RTVSPost2010Prop53
 90
        2
102
RTVSPost2010PropOp53
 70
     1
102
RTVSPost2010Prop54
  1
strokes_ogs.tif
102
RTVSPost2010PropOp54
 70
     1
102
RTVSPost2010Prop55
280
     0
102
RTVSPost2010PropOp55
 70
     1
102
RTVSPost2010Prop56
140
1.0
102
RTVSPost2010PropOp56
 70
     1
102
RTVSPost2010Prop57
140
1.0
102
RTVSPost2010PropOp57
 70
     1
  0
XRECORD
  5
14C
102
{ACAD_REACTORS
330
14B
102
}
330
14B
100
AcDbXrecord
280
     1
102
RTVSPost2010Prop28
280
     0
102
RTVSPost2010PropOp28
 70
     0
102
RTVSPost2010Prop29
280
     1
102
RTVSPost2010PropOp29
 70
     0
102
RTVSPost2010Prop30
280
     1
102
RTVSPost2010PropOp30
 70
     0
102
RTVSPost2010Prop31
280
     0
102
RTVSPost2010PropOp31
 70
     0
102
RTVSPost2010Prop32
280
     0
102
RTVSPost2010PropOp32
 70
     0
102
RTVSPost2010Prop33
280
     0
102
RTVSPost2010PropOp33
 70
     0
102
RTVSPost2010Prop34
280
     0
102
RTVSPost2010PropOp34
 70
     0
102
RTVSPost2010Prop35
280
     0
102
RTVSPost2010PropOp35
 70
     0
102
RTVSPost2010Prop36
280
     0
102
RTVSPost2010PropOp36
 70
     0
102
RTVSPost2010Prop37
 90
       50
102
RTVSPost2010PropOp37
 70
     0
102
RTVSPost2010Prop38
140
0.0
102
RTVSPost2010PropOp38
 70
     0
102
RTVSPost2010Prop39
140
1.0
102
RTVSPost2010PropOp39
 70
     0
102
RTVSPost2010Prop40
 90
        0
102
RTVSPost2010PropOp40
 70
     0
102
RTVSPost2010Prop41ColorIndex
 90
       18
102
RTVSPost2010Prop41ColorRGB
 90
        0
102
RTVSPost2010PropOp41
 70
     0
102
RTVSPost2010Prop42
 90
       50
102
RTVSPost2010PropOp42
 70
     0
102
RTVSPost2010Prop43
 90
        3
102
RTVSPost2010PropOp43
 70
     0
102
RTVSPost2010Prop44ColorIndex
 90
        5
102
RTVSPost2010Prop44ColorRGB
 90
      255
102
RTVSPost2010PropOp44
 70
     0
102
RTVSPost2010Prop45
280
     0
102
RTVSPost2010PropOp45
 70
     0
102
RTVSPost2010Prop46
 90
       50
102
RTVSPost2010PropOp46
 70
     0
102
RTVSPost2010Prop47
 90
       50
102
RTVSPost2010PropOp47
 70
     0
102
RTVSPost2010Prop48
 90
       50
102
RTVSPost2010PropOp48
 70
     0
102
RTVSPost2010Prop49
280
     0
102
RTVSPost2010PropOp49
 70
     0
102
RTVSPost2010Prop50
 90
       50
102
RTVSPost2010PropOp50
 70
     0
102
RTVSPost2010Prop51ColorIndex
 90
      256
102
RTVSPost2010Prop51ColorRGB
 90
-16777216
102
RTVSPost2010PropOp51
 70
     0
102
RTVSPost2010Prop52
140
1.0
102
RTVSPost2010PropOp52
 70
     0
102
RTVSPost2010Prop53
 90
        2
102
RTVSPost2010PropOp53
 70
     0
102
RTVSPost2010Prop54
  1
strokes_ogs.tif
102
RTVSPost2010PropOp54
 70
     0
102
RTVSPost2010Prop55
280
     0
102
RTVSPost2010PropOp55
 70
     0
102
RTVSPost2010Prop56
140
1.0
102
RTVSPost2010PropOp56
 70
     0
102
RTVSPost2010Prop57
140
1.0
102
RTVSPost2010PropOp57
 70
     0
  0
XRECORD
  5
13A
102
{ACAD_REACTORS
330
139
102
}
330
139
100
AcDbXrecord
280
     1
102
RTVSPost2010Prop28
280
     0
102
RTVSPost2010PropOp28
 70
     1
102
RTVSPost2010Prop29
280
     1
102
RTVSPost2010PropOp29
 70
     1
102
RTVSPost2010Prop30
280
     1
102
RTVSPost2010PropOp30
 70
     1
102
RTVSPost2010Prop31
280
     0
102
RTVSPost2010PropOp31
 70
     1
102
RTVSPost2010Prop32
280
     0
102
RTVSPost2010PropOp32
 70
     1
102
RTVSPost2010Prop33
280
     0
102
RTVSPost2010PropOp33
 70
     1
102
RTVSPost2010Prop34
280
     0
102
RTVSPost2010PropOp34
 70
     1
102
RTVSPost2010Prop35
280
     0
102
RTVSPost2010PropOp35
 70
     1
102
RTVSPost2010Prop36
280
     0
102
RTVSPost2010PropOp36
 70
     1
102
RTVSPost2010Prop37
 90
       50
102
RTVSPost2010PropOp37
 70
     1
102
RTVSPost2010Prop38
140
0.0
102
RTVSPost2010PropOp38
 70
     1
102
RTVSPost2010Prop39
140
1.0
102
RTVSPost2010PropOp39
 70
     1
102
RTVSPost2010Prop40
 90
        0
102
RTVSPost2010PropOp40
 70
     1
102
RTVSPost2010Prop41ColorIndex
 90
       18
102
RTVSPost2010Prop41ColorRGB
 90
        0
102
RTVSPost2010PropOp41
 70
     1
102
RTVSPost2010Prop42
 90
       50
102
RTVSPost2010PropOp42
 70
     1
102
RTVSPost2010Prop43
 90
        3
102
RTVSPost2010PropOp43
 70
     1
102
RTVSPost2010Prop44ColorIndex
 90
        5
102
RTVSPost2010Prop44ColorRGB
 90
      255
102
RTVSPost2010PropOp44
 70
     1
102
RTVSPost2010Prop45
280
     0
102
RTVSPost2010PropOp45
 70
     1
102
RTVSPost2010Prop46
 90
       50
102
RTVSPost2010PropOp46
 70
     1
102
RTVSPost2010Prop47
 90
       50
102
RTVSPost2010PropOp47
 70
     1
102
RTVSPost2010Prop48
 90
       50
102
RTVSPost2010PropOp48
 70
     1
102
RTVSPost2010Prop49
280
     0
102
RTVSPost2010PropOp49
 70
     1
102
RTVSPost2010Prop50
 90
       50
102
RTVSPost2010PropOp50
 70
     1
102
RTVSPost2010Prop51ColorIndex
 90
      256
102
RTVSPost2010Prop51ColorRGB
 90
-16777216
102
RTVSPost2010PropOp51
 70
     0
102
RTVSPost2010Prop52
140
1.0
102
RTVSPost2010PropOp52
 70
     0
102
RTVSPost2010Prop53
 90
        2
102
RTVSPost2010PropOp53
 70
     1
102
RTVSPost2010Prop54
  1
strokes_ogs.tif
102
RTVSPost2010PropOp54
 70
     1
102
RTVSPost2010Prop55
280
     0
102
RTVSPost2010PropOp55
 70
     1
102
RTVSPost2010Prop56
140
1.0
102
RTVSPost2010PropOp56
 70
     1
102
RTVSPost2010Prop57
140
1.0
102
RTVSPost2010PropOp57
 70
     1
  0
XRECORD
  5
11E
102
{ACAD_REACTORS
330
11D
102
}
330
11D
100
AcDbXrecord
280
     1
102
RTVSPost2010Prop28
280
     0
102
RTVSPost2010PropOp28
 70
     1
102
RTVSPost2010Prop29
280
     1
102
RTVSPost2010PropOp29
 70
     1
102
RTVSPost2010Prop30
280
     1
102
RTVSPost2010PropOp30
 70
     1
102
RTVSPost2010Prop31
280
     0
102
RTVSPost2010PropOp31
 70
     1
102
RTVSPost2010Prop32
280
     0
102
RTVSPost2010PropOp32
 70
     1
102
RTVSPost2010Prop33
280
     0
102
RTVSPost2010PropOp33
 70
     1
102
RTVSPost2010Prop34
280
     0
102
RTVSPost2010PropOp34
 70
     1
102
RTVSPost2010Prop35
280
     0
102
RTVSPost2010PropOp35
 70
     1
102
RTVSPost2010Prop36
280
     0
102
RTVSPost2010PropOp36
 70
     1
102
RTVSPost2010Prop37
 90
       50
102
RTVSPost2010PropOp37
 70
     1
102
RTVSPost2010Prop38
140
0.0
102
RTVSPost2010PropOp38
 70
     1
102
RTVSPost2010Prop39
140
1.0
102
RTVSPost2010PropOp39
 70
     1
102
RTVSPost2010Prop40
 90
        0
102
RTVSPost2010PropOp40
 70
     1
102
RTVSPost2010Prop41ColorIndex
 90
       18
102
RTVSPost2010Prop41ColorRGB
 90
        0
102
RTVSPost2010PropOp41
 70
     1
102
RTVSPost2010Prop42
 90
       50
102
RTVSPost2010PropOp42
 70
     1
102
RTVSPost2010Prop43
 90
        3
102
RTVSPost2010PropOp43
 70
     1
102
RTVSPost2010Prop44ColorIndex
 90
        5
102
RTVSPost2010Prop44ColorRGB
 90
      255
102
RTVSPost2010PropOp44
 70
     1
102
RTVSPost2010Prop45
280
     0
102
RTVSPost2010PropOp45
 70
     1
102
RTVSPost2010Prop46
 90
       50
102
RTVSPost2010PropOp46
 70
     1
102
RTVSPost2010Prop47
 90
       50
102
RTVSPost2010PropOp47
 70
     1
102
RTVSPost2010Prop48
 90
       50
102
RTVSPost2010PropOp48
 70
     1
102
RTVSPost2010Prop49
280
     0
102
RTVSPost2010PropOp49
 70
     1
102
RTVSPost2010Prop50
 90
       50
102
RTVSPost2010PropOp50
 70
     1
102
RTVSPost2010Prop51ColorIndex
 90
      256
102
RTVSPost2010Prop51ColorRGB
 90
-16777216
102
RTVSPost2010PropOp51
 70
     0
102
RTVSPost2010Prop52
140
1.0
102
RTVSPost2010PropOp52
 70
     0
102
RTVSPost2010Prop53
 90
        2
102
RTVSPost2010PropOp53
 70
     1
102
RTVSPost2010Prop54
  1
strokes_ogs.tif
102
RTVSPost2010PropOp54
 70
     1
102
RTVSPost2010Prop55
280
     0
102
RTVSPost2010PropOp55
 70
     1
102
RTVSPost2010Prop56
140
1.0
102
RTVSPost2010PropOp56
 70
     1
102
RTVSPost2010Prop57
140
1.0
102
RTVSPost2010PropOp57
 70
     1
  0
XRECORD
  5
120
102
{ACAD_REACTORS
330
11F
102
}
330
11F
100
AcDbXrecord
280
     1
102
RTVSPost2010Prop28
280
     0
102
RTVSPost2010PropOp28
 70
     1
102
RTVSPost2010Prop29
280
     1
102
RTVSPost2010PropOp29
 70
     1
102
RTVSPost2010Prop30
280
     1
102
RTVSPost2010PropOp30
 70
     1
102
RTVSPost2010Prop31
280
     0
102
RTVSPost2010PropOp31
 70
     1
102
RTVSPost2010Prop32
280
     0
102
RTVSPost2010PropOp32
 70
     1
102
RTVSPost2010Prop33
280
     0
102
RTVSPost2010PropOp33
 70
     1
102
RTVSPost2010Prop34
280
     0
102
RTVSPost2010PropOp34
 70
     1
102
RTVSPost2010Prop35
280
     0
102
RTVSPost2010PropOp35
 70
     1
102
RTVSPost2010Prop36
280
     0
102
RTVSPost2010PropOp36
 70
     1
102
RTVSPost2010Prop37
 90
       50
102
RTVSPost2010PropOp37
 70
     1
102
RTVSPost2010Prop38
140
0.0
102
RTVSPost2010PropOp38
 70
     1
102
RTVSPost2010Prop39
140
1.0
102
RTVSPost2010PropOp39
 70
     1
102
RTVSPost2010Prop40
 90
        0
102
RTVSPost2010PropOp40
 70
     1
102
RTVSPost2010Prop41ColorIndex
 90
       18
102
RTVSPost2010Prop41ColorRGB
 90
        0
102
RTVSPost2010PropOp41
 70
     1
102
RTVSPost2010Prop42
 90
       50
102
RTVSPost2010PropOp42
 70
     1
102
RTVSPost2010Prop43
 90
        3
102
RTVSPost2010PropOp43
 70
     1
102
RTVSPost2010Prop44ColorIndex
 90
        5
102
RTVSPost2010Prop44ColorRGB
 90
      255
102
RTVSPost2010PropOp44
 70
     1
102
RTVSPost2010Prop45
280
     0
102
RTVSPost2010PropOp45
 70
     1
102
RTVSPost2010Prop46
 90
       50
102
RTVSPost2010PropOp46
 70
     1
102
RTVSPost2010Prop47
 90
       50
102
RTVSPost2010PropOp47
 70
     1
102
RTVSPost2010Prop48
 90
       50
102
RTVSPost2010PropOp48
 70
     1
102
RTVSPost2010Prop49
280
     0
102
RTVSPost2010PropOp49
 70
     1
102
RTVSPost2010Prop50
 90
       50
102
RTVSPost2010PropOp50
 70
     1
102
RTVSPost2010Prop51ColorIndex
 90
      256
102
RTVSPost2010Prop51ColorRGB
 90
-16777216
102
RTVSPost2010PropOp51
 70
     0
102
RTVSPost2010Prop52
140
1.0
102
RTVSPost2010PropOp52
 70
     0
102
RTVSPost2010Prop53
 90
        2
102
RTVSPost2010PropOp53
 70
     1
102
RTVSPost2010Prop54
  1
strokes_ogs.tif
102
RTVSPost2010PropOp54
 70
     1
102
RTVSPost2010Prop55
280
     0
102
RTVSPost2010PropOp55
 70
     1
102
RTVSPost2010Prop56
140
1.0
102
RTVSPost2010PropOp56
 70
     1
102
RTVSPost2010Prop57
140
1.0
102
RTVSPost2010PropOp57
 70
     1
  0
XRECORD
  5
122
102
{ACAD_REACTORS
330
121
102
}
330
121
100
AcDbXrecord
280
     1
102
RTVSPost2010Prop28
280
     0
102
RTVSPost2010PropOp28
 70
     1
102
RTVSPost2010Prop29
280
     1
102
RTVSPost2010PropOp29
 70
     1
102
RTVSPost2010Prop30
280
     1
102
RTVSPost2010PropOp30
 70
     1
102
RTVSPost2010Prop31
280
     0
102
RTVSPost2010PropOp31
 70
     1
102
RTVSPost2010Prop32
280
     0
102
RTVSPost2010PropOp32
 70
     1
102
RTVSPost2010Prop33
280
     0
102
RTVSPost2010PropOp33
 70
     1
102
RTVSPost2010Prop34
280
     0
102
RTVSPost2010PropOp34
 70
     1
102
RTVSPost2010Prop35
280
     0
102
RTVSPost2010PropOp35
 70
     1
102
RTVSPost2010Prop36
280
     0
102
RTVSPost2010PropOp36
 70
     1
102
RTVSPost2010Prop37
 90
       50
102
RTVSPost2010PropOp37
 70
     1
102
RTVSPost2010Prop38
140
0.0
102
RTVSPost2010PropOp38
 70
     1
102
RTVSPost2010Prop39
140
1.0
102
RTVSPost2010PropOp39
 70
     1
102
RTVSPost2010Prop40
 90
        0
102
RTVSPost2010PropOp40
 70
     1
102
RTVSPost2010Prop41ColorIndex
 90
       18
102
RTVSPost2010Prop41ColorRGB
 90
        0
102
RTVSPost2010PropOp41
 70
     1
102
RTVSPost2010Prop42
 90
       50
102
RTVSPost2010PropOp42
 70
     1
102
RTVSPost2010Prop43
 90
        3
102
RTVSPost2010PropOp43
 70
     1
102
RTVSPost2010Prop44ColorIndex
 90
        5
102
RTVSPost2010Prop44ColorRGB
 90
      255
102
RTVSPost2010PropOp44
 70
     1
102
RTVSPost2010Prop45
280
     0
102
RTVSPost2010PropOp45
 70
     1
102
RTVSPost2010Prop46
 90
       50
102
RTVSPost2010PropOp46
 70
     1
102
RTVSPost2010Prop47
 90
       50
102
RTVSPost2010PropOp47
 70
     1
102
RTVSPost2010Prop48
 90
       50
102
RTVSPost2010PropOp48
 70
     1
102
RTVSPost2010Prop49
280
     0
102
RTVSPost2010PropOp49
 70
     1
102
RTVSPost2010Prop50
 90
       50
102
RTVSPost2010PropOp50
 70
     1
102
RTVSPost2010Prop51ColorIndex
 90
      256
102
RTVSPost2010Prop51ColorRGB
 90
-16777216
102
RTVSPost2010PropOp51
 70
     0
102
RTVSPost2010Prop52
140
1.0
102
RTVSPost2010PropOp52
 70
     0
102
RTVSPost2010Prop53
 90
        2
102
RTVSPost2010PropOp53
 70
     1
102
RTVSPost2010Prop54
  1
strokes_ogs.tif
102
RTVSPost2010PropOp54
 70
     1
102
RTVSPost2010Prop55
280
     0
102
RTVSPost2010PropOp55
 70
     1
102
RTVSPost2010Prop56
140
1.0
102
RTVSPost2010PropOp56
 70
     1
102
RTVSPost2010Prop57
140
1.0
102
RTVSPost2010PropOp57
 70
     1
  0
XRECORD
  5
124
102
{ACAD_REACTORS
330
123
102
}
330
123
100
AcDbXrecord
280
     1
102
RTVSPost2010Prop28
280
     0
102
RTVSPost2010PropOp28
 70
     1
102
RTVSPost2010Prop29
280
     1
102
RTVSPost2010PropOp29
 70
     1
102
RTVSPost2010Prop30
280
     1
102
RTVSPost2010PropOp30
 70
     1
102
RTVSPost2010Prop31
280
     0
102
RTVSPost2010PropOp31
 70
     1
102
RTVSPost2010Prop32
280
     0
102
RTVSPost2010PropOp32
 70
     1
102
RTVSPost2010Prop33
280
     0
102
RTVSPost2010PropOp33
 70
     1
102
RTVSPost2010Prop34
280
     0
102
RTVSPost2010PropOp34
 70
     1
102
RTVSPost2010Prop35
280
     0
102
RTVSPost2010PropOp35
 70
     1
102
RTVSPost2010Prop36
280
     0
102
RTVSPost2010PropOp36
 70
     1
102
RTVSPost2010Prop37
 90
       50
102
RTVSPost2010PropOp37
 70
     1
102
RTVSPost2010Prop38
140
0.0
102
RTVSPost2010PropOp38
 70
     1
102
RTVSPost2010Prop39
140
1.0
102
RTVSPost2010PropOp39
 70
     1
102
RTVSPost2010Prop40
 90
        0
102
RTVSPost2010PropOp40
 70
     1
102
RTVSPost2010Prop41ColorIndex
 90
       18
102
RTVSPost2010Prop41ColorRGB
 90
        0
102
RTVSPost2010PropOp41
 70
     1
102
RTVSPost2010Prop42
 90
       50
102
RTVSPost2010PropOp42
 70
     1
102
RTVSPost2010Prop43
 90
        3
102
RTVSPost2010PropOp43
 70
     1
102
RTVSPost2010Prop44ColorIndex
 90
        5
102
RTVSPost2010Prop44ColorRGB
 90
      255
102
RTVSPost2010PropOp44
 70
     1
102
RTVSPost2010Prop45
280
     0
102
RTVSPost2010PropOp45
 70
     1
102
RTVSPost2010Prop46
 90
       50
102
RTVSPost2010PropOp46
 70
     1
102
RTVSPost2010Prop47
 90
       50
102
RTVSPost2010PropOp47
 70
     1
102
RTVSPost2010Prop48
 90
       50
102
RTVSPost2010PropOp48
 70
     1
102
RTVSPost2010Prop49
280
     0
102
RTVSPost2010PropOp49
 70
     1
102
RTVSPost2010Prop50
 90
       50
102
RTVSPost2010PropOp50
 70
     1
102
RTVSPost2010Prop51ColorIndex
 90
      256
102
RTVSPost2010Prop51ColorRGB
 90
-16777216
102
RTVSPost2010PropOp51
 70
     0
102
RTVSPost2010Prop52
140
1.0
102
RTVSPost2010PropOp52
 70
     0
102
RTVSPost2010Prop53
 90
        2
102
RTVSPost2010PropOp53
 70
     1
102
RTVSPost2010Prop54
  1
strokes_ogs.tif
102
RTVSPost2010PropOp54
 70
     1
102
RTVSPost2010Prop55
280
     0
102
RTVSPost2010PropOp55
 70
     1
102
RTVSPost2010Prop56
140
1.0
102
RTVSPost2010PropOp56
 70
     1
102
RTVSPost2010Prop57
140
1.0
102
RTVSPost2010PropOp57
 70
     1
  0
XRECORD
  5
12C
102
{ACAD_REACTORS
330
12B
102
}
330
12B
100
AcDbXrecord
280
     1
102
RTVSPost2010Prop28
280
     0
102
RTVSPost2010PropOp28
 70
     1
102
RTVSPost2010Prop29
280
     1
102
RTVSPost2010PropOp29
 70
     1
102
RTVSPost2010Prop30
280
     1
102
RTVSPost2010PropOp30
 70
     1
102
RTVSPost2010Prop31
280
     0
102
RTVSPost2010PropOp31
 70
     1
102
RTVSPost2010Prop32
280
     0
102
RTVSPost2010PropOp32
 70
     1
102
RTVSPost2010Prop33
280
     0
102
RTVSPost2010PropOp33
 70
     1
102
RTVSPost2010Prop34
280
     0
102
RTVSPost2010PropOp34
 70
     1
102
RTVSPost2010Prop35
280
     0
102
RTVSPost2010PropOp35
 70
     1
102
RTVSPost2010Prop36
280
     0
102
RTVSPost2010PropOp36
 70
     1
102
RTVSPost2010Prop37
 90
       50
102
RTVSPost2010PropOp37
 70
     1
102
RTVSPost2010Prop38
140
0.0
102
RTVSPost2010PropOp38
 70
     1
102
RTVSPost2010Prop39
140
1.0
102
RTVSPost2010PropOp39
 70
     1
102
RTVSPost2010Prop40
 90
        0
102
RTVSPost2010PropOp40
 70
     1
102
RTVSPost2010Prop41ColorIndex
 90
       18
102
RTVSPost2010Prop41ColorRGB
 90
        0
102
RTVSPost2010PropOp41
 70
     1
102
RTVSPost2010Prop42
 90
       50
102
RTVSPost2010PropOp42
 70
     1
102
RTVSPost2010Prop43
 90
        3
102
RTVSPost2010PropOp43
 70
     1
102
RTVSPost2010Prop44ColorIndex
 90
        5
102
RTVSPost2010Prop44ColorRGB
 90
      255
102
RTVSPost2010PropOp44
 70
     1
102
RTVSPost2010Prop45
280
     0
102
RTVSPost2010PropOp45
 70
     1
102
RTVSPost2010Prop46
 90
       50
102
RTVSPost2010PropOp46
 70
     1
102
RTVSPost2010Prop47
 90
       50
102
RTVSPost2010PropOp47
 70
     1
102
RTVSPost2010Prop48
 90
       50
102
RTVSPost2010PropOp48
 70
     1
102
RTVSPost2010Prop49
280
     0
102
RTVSPost2010PropOp49
 70
     1
102
RTVSPost2010Prop50
 90
       50
102
RTVSPost2010PropOp50
 70
     1
102
RTVSPost2010Prop51ColorIndex
 90
      256
102
RTVSPost2010Prop51ColorRGB
 90
-16777216
102
RTVSPost2010PropOp51
 70
     0
102
RTVSPost2010Prop52
140
1.0
102
RTVSPost2010PropOp52
 70
     0
102
RTVSPost2010Prop53
 90
        2
102
RTVSPost2010PropOp53
 70
     1
102
RTVSPost2010Prop54
  1
strokes_ogs.tif
102
RTVSPost2010PropOp54
 70
     1
102
RTVSPost2010Prop55
280
     0
102
RTVSPost2010PropOp55
 70
     1
102
RTVSPost2010Prop56
140
1.0
102
RTVSPost2010PropOp56
 70
     1
102
RTVSPost2010Prop57
140
1.0
102
RTVSPost2010PropOp57
 70
     1
  0
XRECORD
  5
148
102
{ACAD_REACTORS
330
147
102
}
330
147
100
AcDbXrecord
280
     1
102
RTVSPost2010Prop28
280
     0
102
RTVSPost2010PropOp28
 70
     0
102
RTVSPost2010Prop29
280
     1
102
RTVSPost2010PropOp29
 70
     0
102
RTVSPost2010Prop30
280
     1
102
RTVSPost2010PropOp30
 70
     0
102
RTVSPost2010Prop31
280
     0
102
RTVSPost2010PropOp31
 70
     0
102
RTVSPost2010Prop32
280
     0
102
RTVSPost2010PropOp32
 70
     0
102
RTVSPost2010Prop33
280
     0
102
RTVSPost2010PropOp33
 70
     0
102
RTVSPost2010Prop34
280
     0
102
RTVSPost2010PropOp34
 70
     0
102
RTVSPost2010Prop35
280
     0
102
RTVSPost2010PropOp35
 70
     0
102
RTVSPost2010Prop36
280
     0
102
RTVSPost2010PropOp36
 70
     0
102
RTVSPost2010Prop37
 90
       50
102
RTVSPost2010PropOp37
 70
     0
102
RTVSPost2010Prop38
140
0.0
102
RTVSPost2010PropOp38
 70
     0
102
RTVSPost2010Prop39
140
1.0
102
RTVSPost2010PropOp39
 70
     0
102
RTVSPost2010Prop40
 90
        0
102
RTVSPost2010PropOp40
 70
     0
102
RTVSPost2010Prop41ColorIndex
 90
       18
102
RTVSPost2010Prop41ColorRGB
 90
        0
102
RTVSPost2010PropOp41
 70
     0
102
RTVSPost2010Prop42
 90
       50
102
RTVSPost2010PropOp42
 70
     0
102
RTVSPost2010Prop43
 90
        3
102
RTVSPost2010PropOp43
 70
     0
102
RTVSPost2010Prop44ColorIndex
 90
        5
102
RTVSPost2010Prop44ColorRGB
 90
      255
102
RTVSPost2010PropOp44
 70
     0
102
RTVSPost2010Prop45
280
     0
102
RTVSPost2010PropOp45
 70
     0
102
RTVSPost2010Prop46
 90
       50
102
RTVSPost2010PropOp46
 70
     0
102
RTVSPost2010Prop47
 90
       50
102
RTVSPost2010PropOp47
 70
     0
102
RTVSPost2010Prop48
 90
       50
102
RTVSPost2010PropOp48
 70
     0
102
RTVSPost2010Prop49
280
     0
102
RTVSPost2010PropOp49
 70
     0
102
RTVSPost2010Prop50
 90
       50
102
RTVSPost2010PropOp50
 70
     0
102
RTVSPost2010Prop51ColorIndex
 90
      256
102
RTVSPost2010Prop51ColorRGB
 90
-16777216
102
RTVSPost2010PropOp51
 70
     0
102
RTVSPost2010Prop52
140
1.0
102
RTVSPost2010PropOp52
 70
     0
102
RTVSPost2010Prop53
 90
        2
102
RTVSPost2010PropOp53
 70
     0
102
RTVSPost2010Prop54
  1
strokes_ogs.tif
102
RTVSPost2010PropOp54
 70
     0
102
RTVSPost2010Prop55
280
     0
102
RTVSPost2010PropOp55
 70
     0
102
RTVSPost2010Prop56
140
1.0
102
RTVSPost2010PropOp56
 70
     0
102
RTVSPost2010Prop57
140
1.0
102
RTVSPost2010PropOp57
 70
     0
  0
XRECORD
  5
138
102
{ACAD_REACTORS
330
137
102
}
330
137
100
AcDbXrecord
280
     1
102
RTVSPost2010Prop28
280
     0
102
RTVSPost2010PropOp28
 70
     1
102
RTVSPost2010Prop29
280
     1
102
RTVSPost2010PropOp29
 70
     1
102
RTVSPost2010Prop30
280
     1
102
RTVSPost2010PropOp30
 70
     1
102
RTVSPost2010Prop31
280
     0
102
RTVSPost2010PropOp31
 70
     1
102
RTVSPost2010Prop32
280
     0
102
RTVSPost2010PropOp32
 70
     1
102
RTVSPost2010Prop33
280
     0
102
RTVSPost2010PropOp33
 70
     1
102
RTVSPost2010Prop34
280
     0
102
RTVSPost2010PropOp34
 70
     1
102
RTVSPost2010Prop35
280
     0
102
RTVSPost2010PropOp35
 70
     1
102
RTVSPost2010Prop36
280
     0
102
RTVSPost2010PropOp36
 70
     1
102
RTVSPost2010Prop37
 90
       50
102
RTVSPost2010PropOp37
 70
     1
102
RTVSPost2010Prop38
140
0.0
102
RTVSPost2010PropOp38
 70
     1
102
RTVSPost2010Prop39
140
1.0
102
RTVSPost2010PropOp39
 70
     1
102
RTVSPost2010Prop40
 90
        0
102
RTVSPost2010PropOp40
 70
     1
102
RTVSPost2010Prop41ColorIndex
 90
       18
102
RTVSPost2010Prop41ColorRGB
 90
        0
102
RTVSPost2010PropOp41
 70
     1
102
RTVSPost2010Prop42
 90
       50
102
RTVSPost2010PropOp42
 70
     1
102
RTVSPost2010Prop43
 90
        3
102
RTVSPost2010PropOp43
 70
     1
102
RTVSPost2010Prop44ColorIndex
 90
        5
102
RTVSPost2010Prop44ColorRGB
 90
      255
102
RTVSPost2010PropOp44
 70
     1
102
RTVSPost2010Prop45
280
     0
102
RTVSPost2010PropOp45
 70
     1
102
RTVSPost2010Prop46
 90
       50
102
RTVSPost2010PropOp46
 70
     1
102
RTVSPost2010Prop47
 90
       50
102
RTVSPost2010PropOp47
 70
     1
102
RTVSPost2010Prop48
 90
       50
102
RTVSPost2010PropOp48
 70
     1
102
RTVSPost2010Prop49
280
     0
102
RTVSPost2010PropOp49
 70
     1
102
RTVSPost2010Prop50
 90
       50
102
RTVSPost2010PropOp50
 70
     1
102
RTVSPost2010Prop51ColorIndex
 90
      256
102
RTVSPost2010Prop51ColorRGB
 90
-16777216
102
RTVSPost2010PropOp51
 70
     0
102
RTVSPost2010Prop52
140
1.0
102
RTVSPost2010PropOp52
 70
     0
102
RTVSPost2010Prop53
 90
        2
102
RTVSPost2010PropOp53
 70
     1
102
RTVSPost2010Prop54
  1
strokes_ogs.tif
102
RTVSPost2010PropOp54
 70
     1
102
RTVSPost2010Prop55
280
     0
102
RTVSPost2010PropOp55
 70
     1
102
RTVSPost2010Prop56
140
1.0
102
RTVSPost2010PropOp56
 70
     1
102
RTVSPost2010Prop57
140
1.0
102
RTVSPost2010PropOp57
 70
     1
  0
XRECORD
  5
14A
102
{ACAD_REACTORS
330
149
102
}
330
149
100
AcDbXrecord
280
     1
102
RTVSPost2010Prop28
280
     0
102
RTVSPost2010PropOp28
 70
     0
102
RTVSPost2010Prop29
280
     1
102
RTVSPost2010PropOp29
 70
     0
102
RTVSPost2010Prop30
280
     1
102
RTVSPost2010PropOp30
 70
     0
102
RTVSPost2010Prop31
280
     0
102
RTVSPost2010PropOp31
 70
     0
102
RTVSPost2010Prop32
280
     0
102
RTVSPost2010PropOp32
 70
     0
102
RTVSPost2010Prop33
280
     0
102
RTVSPost2010PropOp33
 70
     0
102
RTVSPost2010Prop34
280
     0
102
RTVSPost2010PropOp34
 70
     0
102
RTVSPost2010Prop35
280
     0
102
RTVSPost2010PropOp35
 70
     0
102
RTVSPost2010Prop36
280
     0
102
RTVSPost2010PropOp36
 70
     0
102
RTVSPost2010Prop37
 90
       50
102
RTVSPost2010PropOp37
 70
     0
102
RTVSPost2010Prop38
140
0.0
102
RTVSPost2010PropOp38
 70
     0
102
RTVSPost2010Prop39
140
1.0
102
RTVSPost2010PropOp39
 70
     0
102
RTVSPost2010Prop40
 90
        0
102
RTVSPost2010PropOp40
 70
     0
102
RTVSPost2010Prop41ColorIndex
 90
       18
102
RTVSPost2010Prop41ColorRGB
 90
        0
102
RTVSPost2010PropOp41
 70
     0
102
RTVSPost2010Prop42
 90
       50
102
RTVSPost2010PropOp42
 70
     0
102
RTVSPost2010Prop43
 90
        3
102
RTVSPost2010PropOp43
 70
     0
102
RTVSPost2010Prop44ColorIndex
 90
        5
102
RTVSPost2010Prop44ColorRGB
 90
      255
102
RTVSPost2010PropOp44
 70
     0
102
RTVSPost2010Prop45
280
     0
102
RTVSPost2010PropOp45
 70
     0
102
RTVSPost2010Prop46
 90
       50
102
RTVSPost2010PropOp46
 70
     0
102
RTVSPost2010Prop47
 90
       50
102
RTVSPost2010PropOp47
 70
     0
102
RTVSPost2010Prop48
 90
       50
102
RTVSPost2010PropOp48
 70
     0
102
RTVSPost2010Prop49
280
     0
102
RTVSPost2010PropOp49
 70
     0
102
RTVSPost2010Prop50
 90
       50
102
RTVSPost2010PropOp50
 70
     0
102
RTVSPost2010Prop51ColorIndex
 90
      256
102
RTVSPost2010Prop51ColorRGB
 90
-16777216
102
RTVSPost2010PropOp51
 70
     0
102
RTVSPost2010Prop52
140
1.0
102
RTVSPost2010PropOp52
 70
     0
102
RTVSPost2010Prop53
 90
        2
102
RTVSPost2010PropOp53
 70
     0
102
RTVSPost2010Prop54
  1
strokes_ogs.tif
102
RTVSPost2010PropOp54
 70
     0
102
RTVSPost2010Prop55
280
     0
102
RTVSPost2010PropOp55
 70
     0
102
RTVSPost2010Prop56
140
1.0
102
RTVSPost2010PropOp56
 70
     0
102
RTVSPost2010Prop57
140
1.0
102
RTVSPost2010PropOp57
 70
     0
  0
XRECORD
  5
130
102
{ACAD_REACTORS
330
12F
102
}
330
12F
100
AcDbXrecord
280
     1
102
RTVSPost2010Prop28
280
     0
102
RTVSPost2010PropOp28
 70
     1
102
RTVSPost2010Prop29
280
     1
102
RTVSPost2010PropOp29
 70
     1
102
RTVSPost2010Prop30
280
     1
102
RTVSPost2010PropOp30
 70
     1
102
RTVSPost2010Prop31
280
     0
102
RTVSPost2010PropOp31
 70
     1
102
RTVSPost2010Prop32
280
     0
102
RTVSPost2010PropOp32
 70
     1
102
RTVSPost2010Prop33
280
     0
102
RTVSPost2010PropOp33
 70
     1
102
RTVSPost2010Prop34
280
     0
102
RTVSPost2010PropOp34
 70
     1
102
RTVSPost2010Prop35
280
     0
102
RTVSPost2010PropOp35
 70
     1
102
RTVSPost2010Prop36
280
     0
102
RTVSPost2010PropOp36
 70
     1
102
RTVSPost2010Prop37
 90
       50
102
RTVSPost2010PropOp37
 70
     1
102
RTVSPost2010Prop38
140
0.0
102
RTVSPost2010PropOp38
 70
     1
102
RTVSPost2010Prop39
140
1.0
102
RTVSPost2010PropOp39
 70
     1
102
RTVSPost2010Prop40
 90
        0
102
RTVSPost2010PropOp40
 70
     1
102
RTVSPost2010Prop41ColorIndex
 90
       18
102
RTVSPost2010Prop41ColorRGB
 90
        0
102
RTVSPost2010PropOp41
 70
     1
102
RTVSPost2010Prop42
 90
       50
102
RTVSPost2010PropOp42
 70
     1
102
RTVSPost2010Prop43
 90
        3
102
RTVSPost2010PropOp43
 70
     1
102
RTVSPost2010Prop44ColorIndex
 90
        5
102
RTVSPost2010Prop44ColorRGB
 90
      255
102
RTVSPost2010PropOp44
 70
     1
102
RTVSPost2010Prop45
280
     0
102
RTVSPost2010PropOp45
 70
     1
102
RTVSPost2010Prop46
 90
       50
102
RTVSPost2010PropOp46
 70
     1
102
RTVSPost2010Prop47
 90
       50
102
RTVSPost2010PropOp47
 70
     1
102
RTVSPost2010Prop48
 90
       50
102
RTVSPost2010PropOp48
 70
     1
102
RTVSPost2010Prop49
280
     0
102
RTVSPost2010PropOp49
 70
     1
102
RTVSPost2010Prop50
 90
       50
102
RTVSPost2010PropOp50
 70
     1
102
RTVSPost2010Prop51ColorIndex
 90
      256
102
RTVSPost2010Prop51ColorRGB
 90
-16777216
102
RTVSPost2010PropOp51
 70
     0
102
RTVSPost2010Prop52
140
1.0
102
RTVSPost2010PropOp52
 70
     0
102
RTVSPost2010Prop53
 90
        2
102
RTVSPost2010PropOp53
 70
     1
102
RTVSPost2010Prop54
  1
strokes_ogs.tif
102
RTVSPost2010PropOp54
 70
     1
102
RTVSPost2010Prop55
280
     0
102
RTVSPost2010PropOp55
 70
     1
102
RTVSPost2010Prop56
140
1.0
102
RTVSPost2010PropOp56
 70
     1
102
RTVSPost2010Prop57
140
1.0
102
RTVSPost2010PropOp57
 70
     1
  0
XRECORD
  5
146
102
{ACAD_REACTORS
330
145
102
}
330
145
100
AcDbXrecord
280
     1
102
RTVSPost2010Prop28
280
     0
102
RTVSPost2010PropOp28
 70
     1
102
RTVSPost2010Prop29
280
     1
102
RTVSPost2010PropOp29
 70
     1
102
RTVSPost2010Prop30
280
     1
102
RTVSPost2010PropOp30
 70
     1
102
RTVSPost2010Prop31
280
     0
102
RTVSPost2010PropOp31
 70
     1
102
RTVSPost2010Prop32
280
     0
102
RTVSPost2010PropOp32
 70
     1
102
RTVSPost2010Prop33
280
     0
102
RTVSPost2010PropOp33
 70
     1
102
RTVSPost2010Prop34
280
     0
102
RTVSPost2010PropOp34
 70
     1
102
RTVSPost2010Prop35
280
     0
102
RTVSPost2010PropOp35
 70
     1
102
RTVSPost2010Prop36
280
     0
102
RTVSPost2010PropOp36
 70
     1
102
RTVSPost2010Prop37
 90
       50
102
RTVSPost2010PropOp37
 70
     1
102
RTVSPost2010Prop38
140
0.0
102
RTVSPost2010PropOp38
 70
     1
102
RTVSPost2010Prop39
140
1.0
102
RTVSPost2010PropOp39
 70
     1
102
RTVSPost2010Prop40
 90
        0
102
RTVSPost2010PropOp40
 70
     1
102
RTVSPost2010Prop41ColorIndex
 90
       18
102
RTVSPost2010Prop41ColorRGB
 90
        0
102
RTVSPost2010PropOp41
 70
     1
102
RTVSPost2010Prop42
 90
       50
102
RTVSPost2010PropOp42
 70
     1
102
RTVSPost2010Prop43
 90
        3
102
RTVSPost2010PropOp43
 70
     1
102
RTVSPost2010Prop44ColorIndex
 90
        5
102
RTVSPost2010Prop44ColorRGB
 90
      255
102
RTVSPost2010PropOp44
 70
     1
102
RTVSPost2010Prop45
280
     0
102
RTVSPost2010PropOp45
 70
     1
102
RTVSPost2010Prop46
 90
       50
102
RTVSPost2010PropOp46
 70
     1
102
RTVSPost2010Prop47
 90
       50
102
RTVSPost2010PropOp47
 70
     1
102
RTVSPost2010Prop48
 90
       50
102
RTVSPost2010PropOp48
 70
     1
102
RTVSPost2010Prop49
280
     0
102
RTVSPost2010PropOp49
 70
     1
102
RTVSPost2010Prop50
 90
       50
102
RTVSPost2010PropOp50
 70
     1
102
RTVSPost2010Prop51ColorIndex
 90
      256
102
RTVSPost2010Prop51ColorRGB
 90
-16777216
102
RTVSPost2010PropOp51
 70
     0
102
RTVSPost2010Prop52
140
1.0
102
RTVSPost2010PropOp52
 70
     0
102
RTVSPost2010Prop53
 90
        2
102
RTVSPost2010PropOp53
 70
     1
102
RTVSPost2010Prop54
  1
strokes_ogs.tif
102
RTVSPost2010PropOp54
 70
     1
102
RTVSPost2010Prop55
280
     0
102
RTVSPost2010PropOp55
 70
     1
102
RTVSPost2010Prop56
140
1.0
102
RTVSPost2010PropOp56
 70
     1
102
RTVSPost2010Prop57
140
1.0
102
RTVSPost2010PropOp57
 70
     1
  0
XRECORD
  5
144
102
{ACAD_REACTORS
330
143
102
}
330
143
100
AcDbXrecord
280
     1
102
RTVSPost2010Prop28
280
     0
102
RTVSPost2010PropOp28
 70
     1
102
RTVSPost2010Prop29
280
     1
102
RTVSPost2010PropOp29
 70
     1
102
RTVSPost2010Prop30
280
     1
102
RTVSPost2010PropOp30
 70
     1
102
RTVSPost2010Prop31
280
     0
102
RTVSPost2010PropOp31
 70
     1
102
RTVSPost2010Prop32
280
     0
102
RTVSPost2010PropOp32
 70
     1
102
RTVSPost2010Prop33
280
     0
102
RTVSPost2010PropOp33
 70
     1
102
RTVSPost2010Prop34
280
     0
102
RTVSPost2010PropOp34
 70
     1
102
RTVSPost2010Prop35
280
     0
102
RTVSPost2010PropOp35
 70
     1
102
RTVSPost2010Prop36
280
     0
102
RTVSPost2010PropOp36
 70
     1
102
RTVSPost2010Prop37
 90
       50
102
RTVSPost2010PropOp37
 70
     1
102
RTVSPost2010Prop38
140
0.0
102
RTVSPost2010PropOp38
 70
     1
102
RTVSPost2010Prop39
140
1.0
102
RTVSPost2010PropOp39
 70
     1
102
RTVSPost2010Prop40
 90
        0
102
RTVSPost2010PropOp40
 70
     1
102
RTVSPost2010Prop41ColorIndex
 90
       18
102
RTVSPost2010Prop41ColorRGB
 90
        0
102
RTVSPost2010PropOp41
 70
     1
102
RTVSPost2010Prop42
 90
       50
102
RTVSPost2010PropOp42
 70
     1
102
RTVSPost2010Prop43
 90
        3
102
RTVSPost2010PropOp43
 70
     1
102
RTVSPost2010Prop44ColorIndex
 90
        5
102
RTVSPost2010Prop44ColorRGB
 90
      255
102
RTVSPost2010PropOp44
 70
     1
102
RTVSPost2010Prop45
280
     0
102
RTVSPost2010PropOp45
 70
     1
102
RTVSPost2010Prop46
 90
       50
102
RTVSPost2010PropOp46
 70
     1
102
RTVSPost2010Prop47
 90
       50
102
RTVSPost2010PropOp47
 70
     1
102
RTVSPost2010Prop48
 90
       50
102
RTVSPost2010PropOp48
 70
     1
102
RTVSPost2010Prop49
280
     0
102
RTVSPost2010PropOp49
 70
     1
102
RTVSPost2010Prop50
 90
       50
102
RTVSPost2010PropOp50
 70
     1
102
RTVSPost2010Prop51ColorIndex
 90
      256
102
RTVSPost2010Prop51ColorRGB
 90
-16777216
102
RTVSPost2010PropOp51
 70
     0
102
RTVSPost2010Prop52
140
1.0
102
RTVSPost2010PropOp52
 70
     0
102
RTVSPost2010Prop53
 90
        2
102
RTVSPost2010PropOp53
 70
     1
102
RTVSPost2010Prop54
  1
strokes_ogs.tif
102
RTVSPost2010PropOp54
 70
     1
102
RTVSPost2010Prop55
280
     0
102
RTVSPost2010PropOp55
 70
     1
102
RTVSPost2010Prop56
140
1.0
102
RTVSPost2010PropOp56
 70
     1
102
RTVSPost2010Prop57
140
1.0
102
RTVSPost2010PropOp57
 70
     1
  0
XRECORD
  5
13E
102
{ACAD_REACTORS
330
13D
102
}
330
13D
100
AcDbXrecord
280
     1
102
RTVSPost2010Prop28
280
     0
102
RTVSPost2010PropOp28
 70
     1
102
RTVSPost2010Prop29
280
     1
102
RTVSPost2010PropOp29
 70
     1
102
RTVSPost2010Prop30
280
     1
102
RTVSPost2010PropOp30
 70
     1
102
RTVSPost2010Prop31
280
     0
102
RTVSPost2010PropOp31
 70
     1
102
RTVSPost2010Prop32
280
     0
102
RTVSPost2010PropOp32
 70
     1
102
RTVSPost2010Prop33
280
     0
102
RTVSPost2010PropOp33
 70
     1
102
RTVSPost2010Prop34
280
     0
102
RTVSPost2010PropOp34
 70
     1
102
RTVSPost2010Prop35
280
     0
102
RTVSPost2010PropOp35
 70
     1
102
RTVSPost2010Prop36
280
     0
102
RTVSPost2010PropOp36
 70
     1
102
RTVSPost2010Prop37
 90
       50
102
RTVSPost2010PropOp37
 70
     1
102
RTVSPost2010Prop38
140
0.0
102
RTVSPost2010PropOp38
 70
     1
102
RTVSPost2010Prop39
140
1.0
102
RTVSPost2010PropOp39
 70
     1
102
RTVSPost2010Prop40
 90
        0
102
RTVSPost2010PropOp40
 70
     1
102
RTVSPost2010Prop41ColorIndex
 90
       18
102
RTVSPost2010Prop41ColorRGB
 90
        0
102
RTVSPost2010PropOp41
 70
     1
102
RTVSPost2010Prop42
 90
       50
102
RTVSPost2010PropOp42
 70
     1
102
RTVSPost2010Prop43
 90
        3
102
RTVSPost2010PropOp43
 70
     1
102
RTVSPost2010Prop44ColorIndex
 90
        5
102
RTVSPost2010Prop44ColorRGB
 90
      255
102
RTVSPost2010PropOp44
 70
     1
102
RTVSPost2010Prop45
280
     0
102
RTVSPost2010PropOp45
 70
     1
102
RTVSPost2010Prop46
 90
       50
102
RTVSPost2010PropOp46
 70
     1
102
RTVSPost2010Prop47
 90
       50
102
RTVSPost2010PropOp47
 70
     1
102
RTVSPost2010Prop48
 90
       50
102
RTVSPost2010PropOp48
 70
     1
102
RTVSPost2010Prop49
280
     0
102
RTVSPost2010PropOp49
 70
     1
102
RTVSPost2010Prop50
 90
       50
102
RTVSPost2010PropOp50
 70
     1
102
RTVSPost2010Prop51ColorIndex
 90
      256
102
RTVSPost2010Prop51ColorRGB
 90
-16777216
102
RTVSPost2010PropOp51
 70
     0
102
RTVSPost2010Prop52
140
1.0
102
RTVSPost2010PropOp52
 70
     0
102
RTVSPost2010Prop53
 90
        2
102
RTVSPost2010PropOp53
 70
     1
102
RTVSPost2010Prop54
  1
strokes_ogs.tif
102
RTVSPost2010PropOp54
 70
     1
102
RTVSPost2010Prop55
280
     0
102
RTVSPost2010PropOp55
 70
     1
102
RTVSPost2010Prop56
140
1.0
102
RTVSPost2010PropOp56
 70
     1
102
RTVSPost2010Prop57
140
1.0
102
RTVSPost2010PropOp57
 70
     1
  0
XRECORD
  5
140
102
{ACAD_REACTORS
330
13F
102
}
330
13F
100
AcDbXrecord
280
     1
102
RTVSPost2010Prop28
280
     0
102
RTVSPost2010PropOp28
 70
     1
102
RTVSPost2010Prop29
280
     1
102
RTVSPost2010PropOp29
 70
     1
102
RTVSPost2010Prop30
280
     1
102
RTVSPost2010PropOp30
 70
     1
102
RTVSPost2010Prop31
280
     0
102
RTVSPost2010PropOp31
 70
     1
102
RTVSPost2010Prop32
280
     0
102
RTVSPost2010PropOp32
 70
     1
102
RTVSPost2010Prop33
280
     0
102
RTVSPost2010PropOp33
 70
     1
102
RTVSPost2010Prop34
280
     0
102
RTVSPost2010PropOp34
 70
     1
102
RTVSPost2010Prop35
280
     0
102
RTVSPost2010PropOp35
 70
     1
102
RTVSPost2010Prop36
280
     0
102
RTVSPost2010PropOp36
 70
     1
102
RTVSPost2010Prop37
 90
       50
102
RTVSPost2010PropOp37
 70
     1
102
RTVSPost2010Prop38
140
0.0
102
RTVSPost2010PropOp38
 70
     1
102
RTVSPost2010Prop39
140
1.0
102
RTVSPost2010PropOp39
 70
     1
102
RTVSPost2010Prop40
 90
        0
102
RTVSPost2010PropOp40
 70
     1
102
RTVSPost2010Prop41ColorIndex
 90
       18
102
RTVSPost2010Prop41ColorRGB
 90
        0
102
RTVSPost2010PropOp41
 70
     1
102
RTVSPost2010Prop42
 90
       50
102
RTVSPost2010PropOp42
 70
     1
102
RTVSPost2010Prop43
 90
        3
102
RTVSPost2010PropOp43
 70
     1
102
RTVSPost2010Prop44ColorIndex
 90
        5
102
RTVSPost2010Prop44ColorRGB
 90
      255
102
RTVSPost2010PropOp44
 70
     1
102
RTVSPost2010Prop45
280
     0
102
RTVSPost2010PropOp45
 70
     1
102
RTVSPost2010Prop46
 90
       50
102
RTVSPost2010PropOp46
 70
     1
102
RTVSPost2010Prop47
 90
       50
102
RTVSPost2010PropOp47
 70
     1
102
RTVSPost2010Prop48
 90
       50
102
RTVSPost2010PropOp48
 70
     1
102
RTVSPost2010Prop49
280
     0
102
RTVSPost2010PropOp49
 70
     1
102
RTVSPost2010Prop50
 90
       50
102
RTVSPost2010PropOp50
 70
     1
102
RTVSPost2010Prop51ColorIndex
 90
      256
102
RTVSPost2010Prop51ColorRGB
 90
-16777216
102
RTVSPost2010PropOp51
 70
     0
102
RTVSPost2010Prop52
140
1.0
102
RTVSPost2010PropOp52
 70
     0
102
RTVSPost2010Prop53
 90
        2
102
RTVSPost2010PropOp53
 70
     1
102
RTVSPost2010Prop54
  1
strokes_ogs.tif
102
RTVSPost2010PropOp54
 70
     1
102
RTVSPost2010Prop55
280
     0
102
RTVSPost2010PropOp55
 70
     1
102
RTVSPost2010Prop56
140
1.0
102
RTVSPost2010PropOp56
 70
     1
102
RTVSPost2010Prop57
140
1.0
102
RTVSPost2010PropOp57
 70
     1
  0
XRECORD
  5
136
102
{ACAD_REACTORS
330
135
102
}
330
135
100
AcDbXrecord
280
     1
102
RTVSPost2010Prop28
280
     0
102
RTVSPost2010PropOp28
 70
     1
102
RTVSPost2010Prop29
280
     1
102
RTVSPost2010PropOp29
 70
     1
102
RTVSPost2010Prop30
280
     1
102
RTVSPost2010PropOp30
 70
     1
102
RTVSPost2010Prop31
280
     0
102
RTVSPost2010PropOp31
 70
     1
102
RTVSPost2010Prop32
280
     0
102
RTVSPost2010PropOp32
 70
     1
102
RTVSPost2010Prop33
280
     0
102
RTVSPost2010PropOp33
 70
     1
102
RTVSPost2010Prop34
280
     0
102
RTVSPost2010PropOp34
 70
     1
102
RTVSPost2010Prop35
280
     0
102
RTVSPost2010PropOp35
 70
     1
102
RTVSPost2010Prop36
280
     0
102
RTVSPost2010PropOp36
 70
     1
102
RTVSPost2010Prop37
 90
       50
102
RTVSPost2010PropOp37
 70
     1
102
RTVSPost2010Prop38
140
0.0
102
RTVSPost2010PropOp38
 70
     1
102
RTVSPost2010Prop39
140
1.0
102
RTVSPost2010PropOp39
 70
     1
102
RTVSPost2010Prop40
 90
        0
102
RTVSPost2010PropOp40
 70
     1
102
RTVSPost2010Prop41ColorIndex
 90
       18
102
RTVSPost2010Prop41ColorRGB
 90
        0
102
RTVSPost2010PropOp41
 70
     1
102
RTVSPost2010Prop42
 90
       50
102
RTVSPost2010PropOp42
 70
     1
102
RTVSPost2010Prop43
 90
        3
102
RTVSPost2010PropOp43
 70
     1
102
RTVSPost2010Prop44ColorIndex
 90
        5
102
RTVSPost2010Prop44ColorRGB
 90
      255
102
RTVSPost2010PropOp44
 70
     1
102
RTVSPost2010Prop45
280
     0
102
RTVSPost2010PropOp45
 70
     1
102
RTVSPost2010Prop46
 90
       50
102
RTVSPost2010PropOp46
 70
     1
102
RTVSPost2010Prop47
 90
       50
102
RTVSPost2010PropOp47
 70
     1
102
RTVSPost2010Prop48
 90
       50
102
RTVSPost2010PropOp48
 70
     1
102
RTVSPost2010Prop49
280
     0
102
RTVSPost2010PropOp49
 70
     1
102
RTVSPost2010Prop50
 90
       50
102
RTVSPost2010PropOp50
 70
     1
102
RTVSPost2010Prop51ColorIndex
 90
      256
102
RTVSPost2010Prop51ColorRGB
 90
-16777216
102
RTVSPost2010PropOp51
 70
     0
102
RTVSPost2010Prop52
140
1.0
102
RTVSPost2010PropOp52
 70
     0
102
RTVSPost2010Prop53
 90
        2
102
RTVSPost2010PropOp53
 70
     1
102
RTVSPost2010Prop54
  1
strokes_ogs.tif
102
RTVSPost2010PropOp54
 70
     1
102
RTVSPost2010Prop55
280
     0
102
RTVSPost2010PropOp55
 70
     1
102
RTVSPost2010Prop56
140
1.0
102
RTVSPost2010PropOp56
 70
     1
102
RTVSPost2010Prop57
140
1.0
102
RTVSPost2010PropOp57
 70
     1
  0
XRECORD
  5
12A
102
{ACAD_REACTORS
330
129
102
}
330
129
100
AcDbXrecord
280
     1
102
RTVSPost2010Prop28
280
     0
102
RTVSPost2010PropOp28
 70
     1
102
RTVSPost2010Prop29
280
     1
102
RTVSPost2010PropOp29
 70
     1
102
RTVSPost2010Prop30
280
     1
102
RTVSPost2010PropOp30
 70
     1
102
RTVSPost2010Prop31
280
     0
102
RTVSPost2010PropOp31
 70
     1
102
RTVSPost2010Prop32
280
     0
102
RTVSPost2010PropOp32
 70
     1
102
RTVSPost2010Prop33
280
     0
102
RTVSPost2010PropOp33
 70
     1
102
RTVSPost2010Prop34
280
     0
102
RTVSPost2010PropOp34
 70
     1
102
RTVSPost2010Prop35
280
     0
102
RTVSPost2010PropOp35
 70
     1
102
RTVSPost2010Prop36
280
     0
102
RTVSPost2010PropOp36
 70
     1
102
RTVSPost2010Prop37
 90
       50
102
RTVSPost2010PropOp37
 70
     1
102
RTVSPost2010Prop38
140
0.0
102
RTVSPost2010PropOp38
 70
     1
102
RTVSPost2010Prop39
140
1.0
102
RTVSPost2010PropOp39
 70
     1
102
RTVSPost2010Prop40
 90
        0
102
RTVSPost2010PropOp40
 70
     1
102
RTVSPost2010Prop41ColorIndex
 90
       18
102
RTVSPost2010Prop41ColorRGB
 90
        0
102
RTVSPost2010PropOp41
 70
     1
102
RTVSPost2010Prop42
 90
       50
102
RTVSPost2010PropOp42
 70
     1
102
RTVSPost2010Prop43
 90
        3
102
RTVSPost2010PropOp43
 70
     1
102
RTVSPost2010Prop44ColorIndex
 90
        5
102
RTVSPost2010Prop44ColorRGB
 90
      255
102
RTVSPost2010PropOp44
 70
     1
102
RTVSPost2010Prop45
280
     0
102
RTVSPost2010PropOp45
 70
     1
102
RTVSPost2010Prop46
 90
       50
102
RTVSPost2010PropOp46
 70
     1
102
RTVSPost2010Prop47
 90
       50
102
RTVSPost2010PropOp47
 70
     1
102
RTVSPost2010Prop48
 90
       50
102
RTVSPost2010PropOp48
 70
     1
102
RTVSPost2010Prop49
280
     0
102
RTVSPost2010PropOp49
 70
     1
102
RTVSPost2010Prop50
 90
       50
102
RTVSPost2010PropOp50
 70
     1
102
RTVSPost2010Prop51ColorIndex
 90
      256
102
RTVSPost2010Prop51ColorRGB
 90
-16777216
102
RTVSPost2010PropOp51
 70
     0
102
RTVSPost2010Prop52
140
1.0
102
RTVSPost2010PropOp52
 70
     0
102
RTVSPost2010Prop53
 90
        2
102
RTVSPost2010PropOp53
 70
     1
102
RTVSPost2010Prop54
  1
strokes_ogs.tif
102
RTVSPost2010PropOp54
 70
     1
102
RTVSPost2010Prop55
280
     0
102
RTVSPost2010PropOp55
 70
     1
102
RTVSPost2010Prop56
140
1.0
102
RTVSPost2010PropOp56
 70
     1
102
RTVSPost2010Prop57
140
1.0
102
RTVSPost2010PropOp57
 70
     1
  0
XRECORD
  5
142
102
{ACAD_REACTORS
330
141
102
}
330
141
100
AcDbXrecord
280
     1
102
RTVSPost2010Prop28
280
     0
102
RTVSPost2010PropOp28
 70
     1
102
RTVSPost2010Prop29
280
     1
102
RTVSPost2010PropOp29
 70
     1
102
RTVSPost2010Prop30
280
     1
102
RTVSPost2010PropOp30
 70
     1
102
RTVSPost2010Prop31
280
     0
102
RTVSPost2010PropOp31
 70
     1
102
RTVSPost2010Prop32
280
     0
102
RTVSPost2010PropOp32
 70
     1
102
RTVSPost2010Prop33
280
     0
102
RTVSPost2010PropOp33
 70
     1
102
RTVSPost2010Prop34
280
     0
102
RTVSPost2010PropOp34
 70
     1
102
RTVSPost2010Prop35
280
     0
102
RTVSPost2010PropOp35
 70
     1
102
RTVSPost2010Prop36
280
     0
102
RTVSPost2010PropOp36
 70
     1
102
RTVSPost2010Prop37
 90
       50
102
RTVSPost2010PropOp37
 70
     1
102
RTVSPost2010Prop38
140
0.0
102
RTVSPost2010PropOp38
 70
     1
102
RTVSPost2010Prop39
140
1.0
102
RTVSPost2010PropOp39
 70
     1
102
RTVSPost2010Prop40
 90
        0
102
RTVSPost2010PropOp40
 70
     1
102
RTVSPost2010Prop41ColorIndex
 90
       18
102
RTVSPost2010Prop41ColorRGB
 90
        0
102
RTVSPost2010PropOp41
 70
     1
102
RTVSPost2010Prop42
 90
       50
102
RTVSPost2010PropOp42
 70
     1
102
RTVSPost2010Prop43
 90
        3
102
RTVSPost2010PropOp43
 70
     1
102
RTVSPost2010Prop44ColorIndex
 90
        5
102
RTVSPost2010Prop44ColorRGB
 90
      255
102
RTVSPost2010PropOp44
 70
     1
102
RTVSPost2010Prop45
280
     0
102
RTVSPost2010PropOp45
 70
     1
102
RTVSPost2010Prop46
 90
       50
102
RTVSPost2010PropOp46
 70
     1
102
RTVSPost2010Prop47
 90
       50
102
RTVSPost2010PropOp47
 70
     1
102
RTVSPost2010Prop48
 90
       50
102
RTVSPost2010PropOp48
 70
     1
102
RTVSPost2010Prop49
280
     0
102
RTVSPost2010PropOp49
 70
     1
102
RTVSPost2010Prop50
 90
       50
102
RTVSPost2010PropOp50
 70
     1
102
RTVSPost2010Prop51ColorIndex
 90
      256
102
RTVSPost2010Prop51ColorRGB
 90
-16777216
102
RTVSPost2010PropOp51
 70
     0
102
RTVSPost2010Prop52
140
1.0
102
RTVSPost2010PropOp52
 70
     0
102
RTVSPost2010Prop53
 90
        2
102
RTVSPost2010PropOp53
 70
     1
102
RTVSPost2010Prop54
  1
strokes_ogs.tif
102
RTVSPost2010PropOp54
 70
     1
102
RTVSPost2010Prop55
280
     0
102
RTVSPost2010PropOp55
 70
     1
102
RTVSPost2010Prop56
140
1.0
102
RTVSPost2010PropOp56
 70
     1
102
RTVSPost2010Prop57
140
1.0
102
RTVSPost2010PropOp57
 70
     1
  0
ENDSEC
  0
EOF
