  0
SECTION
  2
HEADER
  0
ENDSEC
  0
SECTION
  2
TABLES
  0
TABLE
  2
LTYPE
  0
LTYPE
  2
Continuous
 70
0
  3
Solid line
 72
65
 73
0
 40
0.000000
  0
LTYPE
  2
DASHDOT2
 70
0
  3
Dash dot (.5x) _._._._._._._._._._._._._._._.
 72
65
 73
4
 40
0.500000
 49
0.250000
 49
-0.125000
 49
0.000000
 49
-0.125000
  0
LTYPE
  2
DASHED
 70
0
  3
Dashed _ _ _ _ _ _ _ _ _ _ _ _ _ _ _
 72
65
 73
2
 40
0.75
 49
0.5
 49
-0.25
  0
ENDTAB
  0
TABLE
  2
LAYER
  0
LAYER
  2
CABINETS
 70
0
 62
251
  6
CONTINUOUS
  0
LAYER
  2
BLUE_WALLS
 70
0
 62
5
  6
CONTINUOUS
  0
LAYER
  2
BLACK_TEXT
 70
0
 62
7
  6
CONTINUOUS
  0
LAYER
  2
RED_POLISHED
 70
0
 62
1
  6
CONTINUOUS
  0
LAYER
  2
AQUA_FORMICA
 70
0
 62
4
  6
CONTINUOUS
  0
LAYER
  2
GRAY_SEAM
 70
0
 62
253
  6
CONTINUOUS
  0
LAYER
  2
WOOD
 70
0
 62
26
  6
DASHED
  0
LAYER
  2
TRUE_WALL
 70
0
 62
210
  6
CONTINUOUS
  0
LAYER
  2
CUTOUT
 70
0
 62
30
  6
CONTINUOUS
  0
LAYER
  2
GRANITE_
 70
0
 62
50
  6
CONTINUOUS
  0
LAYER
  2
TILE
 70
0
 62
31
  6
CONTINUOUS
  0
ENDTAB
  0
ENDSEC
  0
SECTION
  2
ENTITIES
  0
POINT
  8
BLACK_TEXT
 10
0
 20
0
 30
0
 62
7
  0
LINE
  8
RED_POLISHED
 10
-8.31269853
 20
11.37485492
 30
0
 11
8.31230147
 21
11.37514508
 31
0
 62
1
  0
LINE
  8
RED_POLISHED
 10
-8.8126898
 20
10.87484619
 30
0
 11
-8.81250873
 21
0.49984619
 31
0
 62
1
  0
LINE
  8
RED_POLISHED
 10
-8.3125
 20
-0.00014508
 30
0
 11
8.3125
 21
0.00014508
 31
0
 62
1
  0
LINE
  8
RED_POLISHED
 10
8.81231019
 20
10.87515381
 30
0
 11
8.81249127
 21
0.50015381
 31
0
 62
1
  0
LINE
  8
BLUE_WALLS
 10
-8.68770507
 20
11.74984837
 30
0
 11
8.68729492
 21
11.75015162
 31
0
 62
5
  0
LINE
  8
BLUE_WALLS
 10
-9.18769635
 20
11.24983965
 30
0
 11
-9.18750218
 21
0.12483965
 31
0
 62
5
  0
LINE
  8
BLUE_WALLS
 10
-8.68749345
 20
-0.37515163
 30
0
 11
8.68750654
 21
-0.37484837
 31
0
 62
5
  0
LINE
  8
BLUE_WALLS
 10
9.18730365
 20
11.25016035
 30
0
 11
9.18749782
 21
0.12516035
 31
0
 62
5
  0
LINE
  8
BLACK_TEXT
 10
10.43730365
 20
11.25018217
 30
0
 11
10.43749782
 21
0.12518217
 31
0
 62
7
  0
LINE
  8
BLACK_TEXT
 10
-8.68772689
 20
12.99984837
 30
0
 11
8.68727311
 21
13.00015162
 31
0
 62
7
  0
LINE
  8
BLACK_TEXT
 10
-10.43769635
 20
11.24981783
 30
0
 11
-10.43750218
 21
0.12481783
 31
0
 62
7
  0
LINE
  8
BLACK_TEXT
 10
-8.68747164
 20
-1.62515163
 30
0
 11
8.68752836
 21
-1.62484837
 31
0
 62
7
  0
ARC
  8
RED_POLISHED
 10
8.31231019
 20
10.87514508
 30
0
 40
0.5
 50
0.001
 51
90.001
 62
1
  0
ARC
  8
RED_POLISHED
 10
-8.3126898
 20
10.87485492
 30
0
 40
0.5
 50
90.001
 51
180.001
 62
1
  0
ARC
  8
RED_POLISHED
 10
-8.31250873
 20
0.49985492
 30
0
 40
0.5
 50
180.001
 51
270.001
 62
1
  0
ARC
  8
RED_POLISHED
 10
8.31249127
 20
0.50014508
 30
0
 40
0.5
 50
270.001
 51
360.001
 62
1
  0
ARC
  8
BLUE_WALLS
 10
8.68730365
 20
11.25015162
 30
0
 40
0.5
 50
0.001
 51
90.001
 62
5
  0
ARC
  8
BLUE_WALLS
 10
-8.68769635
 20
11.24984837
 30
0
 40
0.5
 50
90.001
 51
180.001
 62
5
  0
ARC
  8
BLUE_WALLS
 10
-8.68750218
 20
0.12484837
 30
0
 40
0.5
 50
180.001
 51
270.001
 62
5
  0
ARC
  8
BLUE_WALLS
 10
8.68749782
 20
0.12515163
 30
0
 40
0.5
 50
270.001
 51
360.001
 62
5
  0
ARC
  8
BLACK_TEXT
 10
8.68730365
 20
11.25015162
 30
0
 40
1.75
 50
0.001
 51
90.001
 62
7
  0
ARC
  8
BLACK_TEXT
 10
-8.68769635
 20
11.24984837
 30
0
 40
1.75
 50
90.001
 51
180.001
 62
7
  0
ARC
  8
BLACK_TEXT
 10
-8.68750218
 20
0.12484837
 30
0
 40
1.75
 50
180.001
 51
270.001
 62
7
  0
ARC
  8
BLACK_TEXT
 10
8.68749782
 20
0.12515163
 30
0
 40
1.75
 50
270.001
 51
360.001
 62
7
  0
TEXT
  8
BLACK_TEXT
 10
-8.05411229
 20
7.74275711
 30
0
 11
-8.05411229
 21
7.74275711
 31
0
 72
0
 73
3
 40
1.05
  1
AMIR
 50
0.11
 62
7
  0
TEXT
  8
BLACK_TEXT
 10
-8.04938472
 20
5.35409015
 30
0
 11
-8.04938472
 21
5.35409015
 31
0
 72
0
 73
3
 40
1.05
  1
RECTANGULAR
 50
0.11
 62
7
  0
LINE
  8
BLACK_TEXT
 10
-10.43780421
 20
17.42991115
 30
0
 11
-10.4377344
 21
13.42991115
 31
0
 62
7
  0
LINE
  8
BLACK_TEXT
 10
10.43719579
 20
17.43027549
 30
0
 11
10.4372656
 21
13.43027549
 31
0
 62
7
  0
LINE
  8
BLACK_TEXT
 10
-5.34770764
 20
15.42999999
 30
0
 11
-10.4377693
 21
15.42991115
 31
0
 62
7
  0
LINE
  8
BLACK_TEXT
 10
5.34716903
 20
15.43018665
 30
0
 11
10.43723069
 21
15.43027549
 31
0
 62
7
  0
TEXT
  8
BLACK_TEXT
 10
-0.00026931
 20
15.43009332
 30
0
 11
-0.00026931
 21
15.43009332
 31
0
 72
1
 73
2
 40
1.4
  1
20 7/8"
 50
0
 62
7
  0
LINE
  8
BLACK_TEXT
 10
16.02349826
 20
-1.62472034
 30
0
 11
12.02349826
 21
-1.62479015
 31
0
 62
7
  0
LINE
  8
BLACK_TEXT
 10
16.02324301
 20
13.00027966
 30
0
 11
12.02324301
 21
13.00020985
 31
0
 62
7
  0
LINE
  8
BLACK_TEXT
 10
14.02346397
 20
0.34030642
 30
0
 11
14.02349826
 21
-1.62475524
 31
0
 62
7
  0
LINE
  8
BLACK_TEXT
 10
14.02327731
 20
11.03518309
 30
0
 11
14.02324301
 21
13.00024475
 31
0
 62
7
  0
TEXT
  8
BLACK_TEXT
 10
14.02337064
 20
5.68774475
 30
0
 11
14.02337064
 21
5.68774475
 31
0
 72
1
 73
2
 40
1.4
  1
14 5/8"
 50
90
 62
7
  0
LINE
  8
BLACK_TEXT
 10
-9.18773278
 20
11.63694884
 30
0
 11
-9.18766296
 21
7.63694884
 31
0
 62
7
  0
LINE
  8
BLACK_TEXT
 10
9.18726722
 20
11.63726955
 30
0
 11
9.18733704
 21
7.63726955
 31
0
 62
7
  0
LINE
  8
BLACK_TEXT
 10
-5.3476362
 20
9.63701586
 30
0
 11
-9.18769787
 21
9.63694884
 31
0
 62
7
  0
LINE
  8
BLACK_TEXT
 10
5.34724046
 20
9.63720252
 30
0
 11
9.18730213
 21
9.63726955
 31
0
 62
7
  0
TEXT
  8
BLACK_TEXT
 10
-0.00019787
 20
9.63710919
 30
0
 11
-0.00019787
 21
9.63710919
 31
0
 72
1
 73
2
 40
1.4
  1
18 3/8"
 50
0
 62
7
  0
LINE
  8
BLACK_TEXT
 10
10.29983672
 20
-0.37482023
 30
0
 11
6.29983672
 21
-0.37489005
 31
0
 62
7
  0
LINE
  8
BLACK_TEXT
 10
10.2996251
 20
11.75017976
 30
0
 11
6.2996251
 21
11.75010995
 31
0
 62
7
  0
LINE
  8
BLACK_TEXT
 10
8.29983672
 20
-0.37485514
 30
0
 11
8.2996251
 21
11.75014486
 31
0
 62
7
  0
TEXT
  8
BLACK_TEXT
 10
8.29961637
 20
12.25014486
 30
0
 11
8.29961637
 21
12.25014486
 31
0
 72
0
 73
2
 40
1.4
  1
12 1/8"
 50
90
 62
7
  0
LINE
  8
BLACK_TEXT
 10
6.38310441
 20
0.00011141
 30
0
 11
2.38310441
 21
4.159E-05
 31
0
 62
7
  0
LINE
  8
BLACK_TEXT
 10
6.38290588
 20
11.3751114
 30
0
 11
2.38290588
 21
11.37504159
 31
0
 62
7
  0
LINE
  8
BLACK_TEXT
 10
4.38310441
 20
7.65E-05
 30
0
 11
4.38290588
 21
11.3750765
 31
0
 62
7
  0
TEXT
  8
BLACK_TEXT
 10
4.38289715
 20
11.8750765
 30
0
 11
4.38289715
 21
11.8750765
 31
0
 72
0
 73
2
 40
1.4
  1
11 3/8"
 50
90
 62
7
  0
LINE
  8
BLACK_TEXT
 10
-8.81250333
 20
0.19059873
 30
0
 11
-8.81257314
 21
4.19059873
 31
0
 62
7
  0
LINE
  8
BLACK_TEXT
 10
8.81249667
 20
0.19090634
 30
0
 11
8.81242686
 21
4.19090634
 31
0
 62
7
  0
LINE
  8
BLACK_TEXT
 10
-5.34747657
 20
2.1906592
 30
0
 11
-8.81253823
 21
2.19059873
 31
0
 62
7
  0
LINE
  8
BLACK_TEXT
 10
5.3474001
 20
2.19084586
 30
0
 11
8.81246176
 21
2.19090634
 31
0
 62
7
  0
TEXT
  8
BLACK_TEXT
 10
-3.824E-05
 20
2.19075253
 30
0
 11
-3.824E-05
 21
2.19075253
 31
0
 72
1
 73
2
 40
1.4
  1
17 5/8"
 50
0
 62
7
  0
ENDSEC
  0
EOF
