  0
SECTION
  2
ENTITIES
  0
ARC
  8
APS_GEOMETRY
 10
-9.389995
 20
7.648695
 40
0.75
 50
90.0
 51
180.0
  0
LINE
  8
APS_GEOMETRY
 10
-10.139995
 11
-10.139995
 20
7.648695
 21
-5.913805
  0
ARC
  8
APS_GEOMETRY
 10
-9.389995
 20
-5.913805
 40
0.75
 50
180.0
 51
270.0
  0
LINE
  8
APS_GEOMETRY
 10
-9.389995
 11
9.360005
 20
-6.663805
 21
-6.663805
  0
ARC
  8
APS_GEOMETRY
 10
9.360005
 20
-5.913805
 40
0.75
 50
270.0
 51
0.0
  0
LINE
  8
APS_GEOMETRY
 10
10.110005
 11
10.110005
 20
-5.913805
 21
7.648695
  0
ARC
  8
APS_GEOMETRY
 10
9.360005
 20
7.648695
 40
0.75
 50
0.0
 51
90.0
  0
LINE
  8
APS_GEOMETRY
 10
9.360005
 11
-9.389995
 20
8.398695
 21
8.398695
  0
ARC
  8
APS_GEOMETRY
 10
-8.546245
 20
6.742445
 40
0.625
 50
90.0
 51
180.0
  0
LINE
  8
APS_GEOMETRY
 10
-9.171245
 11
-9.171245
 20
6.742445
 21
-5.007555
  0
ARC
  8
APS_GEOMETRY
 10
-8.546245
 20
-5.007555
 40
0.625
 50
180.0
 51
270.0
  0
LINE
  8
APS_GEOMETRY
 10
-8.546245
 11
8.516255
 20
-5.632555
 21
-5.632555
  0
ARC
  8
APS_GEOMETRY
 10
8.516255
 20
-5.007555
 40
0.625
 50
270.0
 51
0.0
  0
LINE
  8
APS_GEOMETRY
 10
9.141255
 11
9.141255
 20
-5.007555
 21
6.742445
  0
ARC
  8
APS_GEOMETRY
 10
8.516255
 20
6.742445
 40
0.625
 50
0.0
 51
90.0
  0
LINE
  8
APS_GEOMETRY
 10
8.516255
 11
-8.546245
 20
7.367445
 21
7.367445
  0
ARC
  8
APS_GEOMETRY
 10
-8.546245
 20
6.742445
 40
0.3125
 50
90.0
 51
180.0
  0
LINE
  8
APS_GEOMETRY
 10
-8.858745
 11
-8.858745
 20
6.742445
 21
-5.007555
  0
ARC
  8
APS_GEOMETRY
 10
-8.546245
 20
-5.007555
 40
0.3125
 50
180.0
 51
270.0
  0
LINE
  8
APS_GEOMETRY
 10
-8.546245
 11
8.516255
 20
-5.320055
 21
-5.320055
  0
ARC
  8
APS_GEOMETRY
 10
8.516255
 20
-5.007555
 40
0.3125
 50
270.0
 51
0.0
  0
LINE
  8
APS_GEOMETRY
 10
8.828755
 11
8.828755
 20
-5.007555
 21
6.742445
  0
ARC
  8
APS_GEOMETRY
 10
8.516255
 20
6.742445
 40
0.3125
 50
0.0
 51
90.0
  0
LINE
  8
APS_GEOMETRY
 10
8.516255
 11
-8.546245
 20
7.054945
 21
7.054945
  0
ENDSEC
  0
EOF
