  0
SECTION
  2
ENTITIES
  0
LINE
  8
APS_GEOMETRY
 10
1.404728
 11
18.904728
 20
2.02646
 21
2.02646
  0
ARC
  8
APS_GEOMETRY
 10
18.904728
 20
2.52646
 40
0.5
 50
270.0
 51
0.0
  0
LINE
  8
APS_GEOMETRY
 10
19.404728
 11
19.404728
 20
2.52646
 21
15.08896
  0
ARC
  8
APS_GEOMETRY
 10
18.904728
 20
15.08896
 40
0.5
 50
0.0
 51
90.0
  0
LINE
  8
APS_GEOMETRY
 10
18.904728
 11
1.404728
 20
15.58896
 21
15.58896
  0
ARC
  8
APS_GEOMETRY
 10
1.404728
 20
15.08896
 40
0.5
 50
90.0
 51
180.0
  0
LINE
  8
APS_GEOMETRY
 10
0.904728
 11
0.904728
 20
15.08896
 21
2.52646
  0
ARC
  8
APS_GEOMETRY
 10
1.404728
 20
2.52646
 40
0.5
 50
180.0
 51
270.0
  0
LINE
  8
APS_GEOMETRY
 10
2.373478
 11
17.935978
 20
3.05771
 21
3.05771
  0
ARC
  8
APS_GEOMETRY
 10
17.935978
 20
3.43271
 40
0.375
 50
270.0
 51
0.0
  0
LINE
  8
APS_GEOMETRY
 10
18.310978
 11
18.310978
 20
3.43271
 21
14.18271
  0
ARC
  8
APS_GEOMETRY
 10
17.935978
 20
14.18271
 40
0.375
 50
0.0
 51
90.0
  0
LINE
  8
APS_GEOMETRY
 10
17.935978
 11
2.373478
 20
14.55771
 21
14.55771
  0
ARC
  8
APS_GEOMETRY
 10
2.373478
 20
14.18271
 40
0.375
 50
90.0
 51
180.0
  0
LINE
  8
APS_GEOMETRY
 10
1.998478
 11
1.998478
 20
14.18271
 21
3.43271
  0
ARC
  8
APS_GEOMETRY
 10
2.373478
 20
3.43271
 40
0.375
 50
180.0
 51
270.0
  0
LINE
  8
APS_GEOMETRY
 10
2.373478
 11
17.935978
 20
3.30771
 21
3.30771
  0
ARC
  8
APS_GEOMETRY
 10
17.935978
 20
3.43271
 40
0.125
 50
270.0
 51
0.0
  0
LINE
  8
APS_GEOMETRY
 10
18.060978
 11
18.060978
 20
3.43271
 21
14.18271
  0
ARC
  8
APS_GEOMETRY
 10
17.935978
 20
14.18271
 40
0.125
 50
0.0
 51
90.0
  0
LINE
  8
APS_GEOMETRY
 10
17.935978
 11
2.373478
 20
14.30771
 21
14.30771
  0
ARC
  8
APS_GEOMETRY
 10
2.373478
 20
14.18271
 40
0.125
 50
90.0
 51
180.0
  0
LINE
  8
APS_GEOMETRY
 10
2.248478
 11
2.248478
 20
14.18271
 21
3.43271
  0
ARC
  8
APS_GEOMETRY
 10
2.373478
 20
3.43271
 40
0.125
 50
180.0
 51
270.0
  0
ENDSEC
  0
EOF
