  0
SECTION
  2
ENTITIES
  0
ARC
  8
APS_GEOMETRY
 10
-0.0654
 20
5.326759
 40
5.988214
 50
153.657603
 51
206.342397
  0
ARC
  8
APS_GEOMETRY
 10
1.32947
 20
6.017431
 40
7.544714
 50
206.342397
 51
230.086222
  0
ARC
  8
APS_GEOMETRY
 10
2.233357
 20
7.097941
 40
8.953442
 50
230.086222
 51
250.888514
  0
ARC
  8
APS_GEOMETRY
 10
2.821385
 20
8.794963
 40
10.749455
 50
250.888514
 51
289.111486
  0
ARC
  8
APS_GEOMETRY
 10
3.409413
 20
7.097941
 40
8.953442
 50
289.111486
 51
309.913778
  0
ARC
  8
APS_GEOMETRY
 10
4.313301
 20
6.017431
 40
7.544714
 50
309.913778
 51
333.657603
  0
ARC
  8
APS_GEOMETRY
 10
5.708171
 20
5.326759
 40
5.988214
 50
333.657603
 51
26.342397
  0
ARC
  8
APS_GEOMETRY
 10
4.003317
 20
4.656544
 40
7.814985
 50
25.199456
 51
72.360153
  0
ARC
  8
APS_GEOMETRY
 10
2.821385
 20
0.939593
 40
11.71533
 50
72.360153
 51
107.639847
  0
ARC
  8
APS_GEOMETRY
 10
1.639453
 20
4.656544
 40
7.814985
 50
107.639847
 51
154.800544
  0
ARC
  8
APS_GEOMETRY
 10
4.313301
 20
4.636086
 40
8.419714
 50
26.342397
 51
50.086222
  0
ARC
  8
APS_GEOMETRY
 10
3.409413
 20
3.555577
 40
9.828442
 50
50.086222
 51
70.888514
  0
ARC
  8
APS_GEOMETRY
 10
2.821385
 20
1.858554
 40
11.624455
 50
70.888514
 51
76.684603
  0
LINE
  8
APS_GEOMETRY
 10
5.498628
 11
0.144143
 20
13.170509
 21
13.170509
  0
ARC
  8
APS_GEOMETRY
 10
2.821385
 20
1.858554
 40
11.624455
 50
103.315397
 51
109.111486
  0
ARC
  8
APS_GEOMETRY
 10
2.233357
 20
3.555577
 40
9.828442
 50
109.111486
 51
129.913778
  0
ARC
  8
APS_GEOMETRY
 10
1.32947
 20
4.636086
 40
8.419714
 50
129.913778
 51
153.657603
  0
ARC
  8
APS_GEOMETRY
 10
-0.0654
 20
5.326759
 40
6.863214
 50
153.657603
 51
206.342397
  0
ARC
  8
APS_GEOMETRY
 10
1.32947
 20
6.017431
 40
8.419714
 50
206.342397
 51
230.086222
  0
ARC
  8
APS_GEOMETRY
 10
2.233357
 20
7.097941
 40
9.828442
 50
230.086222
 51
250.888514
  0
ARC
  8
APS_GEOMETRY
 10
2.821385
 20
8.794963
 40
11.624455
 50
250.888514
 51
289.111486
  0
ARC
  8
APS_GEOMETRY
 10
3.409413
 20
7.097941
 40
9.828442
 50
289.111486
 51
309.913778
  0
ARC
  8
APS_GEOMETRY
 10
4.313301
 20
6.017431
 40
8.419714
 50
309.913778
 51
333.657603
  0
ARC
  8
APS_GEOMETRY
 10
5.708171
 20
5.326759
 40
6.863214
 50
333.657603
 51
26.342397
  0
ARC
  8
APS_GEOMETRY
 10
-0.0654
 20
5.326759
 40
5.675714
 50
153.626237
 51
206.342397
  0
ARC
  8
APS_GEOMETRY
 10
1.32947
 20
6.017431
 40
7.232214
 50
206.342397
 51
230.086222
  0
ARC
  8
APS_GEOMETRY
 10
2.233357
 20
7.097941
 40
8.640942
 50
230.086222
 51
250.888514
  0
ARC
  8
APS_GEOMETRY
 10
2.821385
 20
8.794963
 40
10.436955
 50
250.888514
 51
289.111486
  0
ARC
  8
APS_GEOMETRY
 10
3.409413
 20
7.097941
 40
8.640942
 50
289.111486
 51
309.913778
  0
ARC
  8
APS_GEOMETRY
 10
4.313301
 20
6.017431
 40
7.232214
 50
309.913778
 51
333.657603
  0
ARC
  8
APS_GEOMETRY
 10
5.708171
 20
5.326759
 40
5.675714
 50
333.657603
 51
26.373763
  0
ARC
  8
APS_GEOMETRY
 10
4.003317
 20
4.656544
 40
7.502485
 50
25.175576
 51
72.360153
  0
ARC
  8
APS_GEOMETRY
 10
2.821385
 20
0.939593
 40
11.40283
 50
72.360153
 51
107.639847
  0
ARC
  8
APS_GEOMETRY
 10
1.639453
 20
4.656544
 40
7.502485
 50
107.639847
 51
154.824424
  0
ENDSEC
  0
EOF
