  0
SECTION
  2
ENTITIES
  0
ARC
  8
APS_GEOMETRY
 10
-0.177364
 20
5.863845
 40
9.93979
 50
269.535562
 51
273.815583
  0
ARC
  8
APS_GEOMETRY
 10
-0.124325
 20
5.068579
 40
9.142757
 50
273.815585
 51
302.841793
  0
ARC
  8
APS_GEOMETRY
 10
0.822461
 20
3.6018
 40
7.396949
 50
302.841811
 51
321.382805
  0
ARC
  8
APS_GEOMETRY
 10
1.760153
 20
2.852794
 40
6.196834
 50
321.382768
 51
342.392664
  0
ARC
  8
APS_GEOMETRY
 10
2.268666
 20
2.691411
 40
5.663327
 50
342.392682
 51
28.9277
  0
ARC
  8
APS_GEOMETRY
 10
1.244454
 20
2.125372
 40
6.833545
 50
28.927684
 51
69.350095
  0
ARC
  8
APS_GEOMETRY
 10
0.403784
 20
-0.105316
 40
9.217385
 50
69.350139
 51
83.236017
  0
ARC
  8
APS_GEOMETRY
 10
-0.257937
 20
-5.684405
 40
14.83558
 50
83.235974
 51
96.76401
  0
ARC
  8
APS_GEOMETRY
 10
-0.919646
 20
-0.105314
 40
9.217385
 50
96.764031
 51
110.649903
  0
ARC
  8
APS_GEOMETRY
 10
-1.760326
 20
2.12537
 40
6.833545
 50
110.649882
 51
151.072288
  0
ARC
  8
APS_GEOMETRY
 10
-2.784535
 20
2.691413
 40
5.663327
 50
151.072308
 51
197.607341
  0
ARC
  8
APS_GEOMETRY
 10
-2.276022
 20
2.852793
 40
6.196834
 50
197.607328
 51
218.617216
  0
ARC
  8
APS_GEOMETRY
 10
-1.338332
 20
3.601801
 40
7.396949
 50
218.617211
 51
237.158202
  0
ARC
  8
APS_GEOMETRY
 10
-0.391543
 20
5.068579
 40
9.142757
 50
237.158202
 51
266.184412
  0
ARC
  8
APS_GEOMETRY
 10
-0.338501
 20
5.863845
 40
9.93979
 50
266.184394
 51
270.464413
  0
ARC
  8
CONSTRUCTION
 10
-0.177364
 20
5.863845
 40
10.81479
 50
269.57314
 51
273.815583
  0
ARC
  8
CONSTRUCTION
 10
-0.124325
 20
5.068579
 40
10.017757
 50
273.815585
 51
302.841792
  0
ARC
  8
CONSTRUCTION
 10
0.822461
 20
3.6018
 40
8.271949
 50
302.841809
 51
321.382803
  0
ARC
  8
CONSTRUCTION
 10
1.760153
 20
2.852794
 40
7.071834
 50
321.38277
 51
342.392666
  0
ARC
  8
CONSTRUCTION
 10
2.268666
 20
2.691411
 40
6.538327
 50
342.392681
 51
28.9277
  0
ARC
  8
CONSTRUCTION
 10
1.244454
 20
2.125372
 40
7.708545
 50
28.927685
 51
69.350096
  0
ARC
  8
CONSTRUCTION
 10
0.403784
 20
-0.105316
 40
10.092385
 50
69.350137
 51
83.236014
  0
ARC
  8
CONSTRUCTION
 10
-0.257937
 20
-5.684405
 40
15.71058
 50
83.235974
 51
96.76401
  0
ARC
  8
CONSTRUCTION
 10
-0.919646
 20
-0.105314
 40
10.092385
 50
96.764029
 51
110.649902
  0
ARC
  8
CONSTRUCTION
 10
-1.760326
 20
2.12537
 40
7.708545
 50
110.649883
 51
151.07229
  0
ARC
  8
CONSTRUCTION
 10
-2.784535
 20
2.691413
 40
6.538327
 50
151.072307
 51
197.607339
  0
ARC
  8
CONSTRUCTION
 10
-2.276022
 20
2.852793
 40
7.071834
 50
197.607328
 51
218.617216
  0
ARC
  8
CONSTRUCTION
 10
-1.338332
 20
3.601801
 40
8.271949
 50
218.617212
 51
237.158203
  0
ARC
  8
CONSTRUCTION
 10
-0.391543
 20
5.068579
 40
10.017757
 50
237.158203
 51
266.184412
  0
ARC
  8
CONSTRUCTION
 10
-0.338501
 20
5.863845
 40
10.81479
 50
266.184395
 51
270.426838
  0
ARC
  8
APS_GEOMETRY
 10
-0.177364
 20
5.863845
 40
9.62729
 50
269.520486
 51
273.815583
  0
ARC
  8
APS_GEOMETRY
 10
-0.124325
 20
5.068579
 40
8.830257
 50
273.815585
 51
302.841793
  0
ARC
  8
APS_GEOMETRY
 10
0.822461
 20
3.6018
 40
7.084449
 50
302.841812
 51
321.382806
  0
ARC
  8
APS_GEOMETRY
 10
1.760153
 20
2.852794
 40
5.884334
 50
321.382767
 51
342.392664
  0
ARC
  8
APS_GEOMETRY
 10
2.268666
 20
2.691411
 40
5.350827
 50
342.392682
 51
28.9277
  0
ARC
  8
APS_GEOMETRY
 10
1.244454
 20
2.125372
 40
6.521045
 50
28.927683
 51
69.350094
  0
ARC
  8
APS_GEOMETRY
 10
0.403784
 20
-0.105316
 40
8.904885
 50
69.35014
 51
83.236018
  0
ARC
  8
APS_GEOMETRY
 10
-0.257937
 20
-5.684405
 40
14.52308
 50
83.235973
 51
96.764009
  0
ARC
  8
APS_GEOMETRY
 10
-0.919646
 20
-0.105314
 40
8.904885
 50
96.764031
 51
110.649904
  0
ARC
  8
APS_GEOMETRY
 10
-1.760326
 20
2.12537
 40
6.521045
 50
110.649882
 51
151.072288
  0
ARC
  8
APS_GEOMETRY
 10
-2.784535
 20
2.691413
 40
5.350827
 50
151.072308
 51
197.607342
  0
ARC
  8
APS_GEOMETRY
 10
-2.276022
 20
2.852793
 40
5.884334
 50
197.607328
 51
218.617216
  0
ARC
  8
APS_GEOMETRY
 10
-1.338332
 20
3.601801
 40
7.084449
 50
218.617211
 51
237.158202
  0
ARC
  8
APS_GEOMETRY
 10
-0.391543
 20
5.068579
 40
8.830257
 50
237.158201
 51
266.184412
  0
ARC
  8
APS_GEOMETRY
 10
-0.338501
 20
5.863845
 40
9.62729
 50
266.184393
 51
270.479488
  0
TEXT
  8
TEXT
 10
9.739252
 20
5.011227
 30
0.0
 40
0.25
 50
0.0
  1
CAUTION USING 
  0
TEXT
  8
TEXT
 10
12.42695
 20
5.011227
 30
0.0
 40
0.25
 50
0.0
  1
FLUSH
  0
TEXT
  8
TEXT
 10
13.322921
 20
5.011227
 30
0.0
 40
0.25
 50
0.0
  1
 LINE
  0
TEXT
  8
TEXT
 10
9.739252
 20
4.636227
 30
0.0
 40
0.25
 50
0.0
  1
DO TO BAKED SINKS CONSISTENCY
  0
TEXT
  8
TEXT
 10
3.187246
 20
8.60205
 30
0.0
 40
0.25
 50
339.887412
  1
FLUSH
  0
TEXT
  8
TEXT
 10
9.739252
 20
4.261227
 30
0.0
 40
0.25
 50
0.0
  1
FILE HAS
  0
TEXT
  8
TEXT
 10
11.097783
 20
4.261227
 30
0.0
 40
0.25
 50
0.0
  1
 5/16 O/H
  0
TEXT
  8
TEXT
 10
-1.179309
 20
8.685263
 30
0.0
 40
0.25
 50
0.0
  1
 5/16 O/H
  0
ENDSEC
  0
EOF
