  0
SECTION
  2
ENTITIES
  0
ARC
  8
APS_GEOMETRY
 10
11.824824
 20
8.18186
 40
5.587164
 50
0.0
 51
26.756259
  0
ARC
  8
APS_GEOMETRY
 10
10.523961
 20
7.52599
 40
7.044013
 50
26.75628
 51
50.594821
  0
ARC
  8
APS_GEOMETRY
 10
9.680092
 20
6.498842
 40
8.373354
 50
50.594797
 51
71.206462
  0
ARC
  8
APS_GEOMETRY
 10
9.130736
 20
4.884525
 40
10.078585
 50
71.206454
 51
108.793527
  0
ARC
  8
APS_GEOMETRY
 10
8.581384
 20
6.498843
 40
8.373354
 50
108.793547
 51
129.405217
  0
ARC
  8
APS_GEOMETRY
 10
7.737516
 20
7.525992
 40
7.044013
 50
129.405211
 51
153.243745
  0
ARC
  8
APS_GEOMETRY
 10
6.436651
 20
8.181857
 40
5.587164
 50
153.243715
 51
206.756235
  0
ARC
  8
APS_GEOMETRY
 10
7.737514
 20
8.83773
 40
7.044013
 50
206.75628
 51
230.594821
  0
ARC
  8
APS_GEOMETRY
 10
8.581383
 20
9.864878
 40
8.373354
 50
230.594797
 51
251.206462
  0
ARC
  8
APS_GEOMETRY
 10
9.130739
 20
11.479195
 40
10.078585
 50
251.206454
 51
288.793522
  0
ARC
  8
APS_GEOMETRY
 10
9.680092
 20
9.864877
 40
8.373354
 50
288.793535
 51
309.405211
  0
ARC
  8
APS_GEOMETRY
 10
10.523959
 20
8.837728
 40
7.044013
 50
309.405211
 51
333.243745
  0
ARC
  8
APS_GEOMETRY
 10
11.824824
 20
8.181863
 40
5.587164
 50
333.243715
 51
359.999973
  0
ARC
  8
APS_GEOMETRY
 10
11.824824
 20
8.18186
 40
4.774664
 50
0.0
 51
26.756259
  0
ARC
  8
APS_GEOMETRY
 10
10.523961
 20
7.52599
 40
6.231513
 50
26.756283
 51
50.594825
  0
ARC
  8
APS_GEOMETRY
 10
9.680092
 20
6.498842
 40
7.560854
 50
50.594797
 51
71.206462
  0
ARC
  8
APS_GEOMETRY
 10
9.130736
 20
4.884525
 40
9.266085
 50
71.206453
 51
108.793527
  0
ARC
  8
APS_GEOMETRY
 10
8.581384
 20
6.498843
 40
7.560854
 50
108.793549
 51
129.405219
  0
ARC
  8
APS_GEOMETRY
 10
7.737516
 20
7.525992
 40
6.231513
 50
129.405212
 51
153.243746
  0
ARC
  8
APS_GEOMETRY
 10
6.436651
 20
8.181857
 40
4.774664
 50
153.243711
 51
206.75623
  0
ARC
  8
APS_GEOMETRY
 10
7.737514
 20
8.83773
 40
6.231513
 50
206.756283
 51
230.594825
  0
ARC
  8
APS_GEOMETRY
 10
8.581383
 20
9.864878
 40
7.560854
 50
230.594797
 51
251.206462
  0
ARC
  8
APS_GEOMETRY
 10
9.130739
 20
11.479195
 40
9.266085
 50
251.206453
 51
288.793521
  0
ARC
  8
APS_GEOMETRY
 10
9.680092
 20
9.864877
 40
7.560854
 50
288.793535
 51
309.405212
  0
ARC
  8
APS_GEOMETRY
 10
10.523959
 20
8.837728
 40
6.231513
 50
309.405212
 51
333.243746
  0
ARC
  8
APS_GEOMETRY
 10
11.824824
 20
8.181863
 40
4.774664
 50
333.243711
 51
359.999968
  0
ARC
  8
APS_GEOMETRY
 10
11.824824
 20
8.18186
 40
4.524664
 50
0.0
 51
26.756259
  0
ARC
  8
APS_GEOMETRY
 10
10.523961
 20
7.52599
 40
5.981513
 50
26.756284
 51
50.594826
  0
ARC
  8
APS_GEOMETRY
 10
9.680092
 20
6.498842
 40
7.310854
 50
50.594797
 51
71.206461
  0
ARC
  8
APS_GEOMETRY
 10
9.130736
 20
4.884525
 40
9.016085
 50
71.206453
 51
108.793526
  0
ARC
  8
APS_GEOMETRY
 10
8.581384
 20
6.498843
 40
7.310854
 50
108.793549
 51
129.405219
  0
ARC
  8
APS_GEOMETRY
 10
7.737516
 20
7.525992
 40
5.981513
 50
129.405213
 51
153.243746
  0
ARC
  8
APS_GEOMETRY
 10
6.436651
 20
8.181857
 40
4.524664
 50
153.243708
 51
206.756228
  0
ARC
  8
APS_GEOMETRY
 10
7.737514
 20
8.83773
 40
5.981513
 50
206.756284
 51
230.594826
  0
ARC
  8
APS_GEOMETRY
 10
8.581383
 20
9.864878
 40
7.310854
 50
230.594797
 51
251.206461
  0
ARC
  8
APS_GEOMETRY
 10
9.130739
 20
11.479195
 40
9.016085
 50
251.206453
 51
288.79352
  0
ARC
  8
APS_GEOMETRY
 10
9.680092
 20
9.864877
 40
7.310854
 50
288.793535
 51
309.405212
  0
ARC
  8
APS_GEOMETRY
 10
10.523959
 20
8.837728
 40
5.981513
 50
309.405213
 51
333.243746
  0
ARC
  8
APS_GEOMETRY
 10
11.824824
 20
8.181863
 40
4.524664
 50
333.243708
 51
359.999965
  0
ENDSEC
  0
EOF
