  0
SECTION
  2
ENTITIES
  0
LINE
  8
CONSTRUCTION
 10
-12.96345
 11
16.53655
 20
-10.94149
 21
-10.94149
  0
ARC
  8
CONSTRUCTION
 10
16.53655
 20
-10.69149
 40
0.25
 50
270.0
 51
0.0
  0
LINE
  8
CONSTRUCTION
 10
16.78655
 11
16.78655
 20
-10.69149
 21
8.30851
  0
ARC
  8
CONSTRUCTION
 10
16.53655
 20
8.30851
 40
0.25
 50
0.0
 51
90.0
  0
LINE
  8
CONSTRUCTION
 10
16.53655
 11
6.28655
 20
8.55851
 21
8.55851
  0
LINE
  8
CONSTRUCTION
 10
6.28655
 11
6.28655
 20
8.55851
 21
18.80851
  0
ARC
  8
CONSTRUCTION
 10
6.03655
 20
18.80851
 40
0.25
 50
0.0
 51
90.0
  0
LINE
  8
CONSTRUCTION
 10
6.03655
 11
-12.96345
 20
19.05851
 21
19.05851
  0
ARC
  8
CONSTRUCTION
 10
-12.96345
 20
18.80851
 40
0.25
 50
90.0
 51
180.0
  0
LINE
  8
CONSTRUCTION
 10
-13.21345
 11
-13.21345
 20
18.80851
 21
-10.69149
  0
ARC
  8
CONSTRUCTION
 10
-12.96345
 20
-10.69149
 40
0.25
 50
180.0
 51
270.0
  0
LINE
  8
APS_GEOMETRY
 10
-12.21345
 11
15.78655
 20
-9.94149
 21
-9.94149
  0
LINE
  8
APS_GEOMETRY
 10
15.78655
 11
15.78655
 20
-9.94149
 21
7.55851
  0
LINE
  8
APS_GEOMETRY
 10
15.78655
 11
5.28655
 20
7.55851
 21
7.55851
  0
LINE
  8
APS_GEOMETRY
 10
5.28655
 11
5.28655
 20
7.55851
 21
18.05851
  0
LINE
  8
APS_GEOMETRY
 10
5.28655
 11
-12.21345
 20
18.05851
 21
18.05851
  0
LINE
  8
APS_GEOMETRY
 10
-12.21345
 11
-12.21345
 20
18.05851
 21
-9.94149
  0
TEXT
  8
TEXT
 10
-12.46345
 20
18.30851
 30
0.0
 40
1.5
 50
0.0
  1

  0
TEXT
  8
TEXT
 10
-12.46345
 20
18.30851
 30
0.0
 40
1.0
 50
0.0
  1

  0
TEXT
  8
TEXT
 10
-11.139223
 20
12.271227
 30
0.0
 40
1.0
 50
0.0
  1
THIS SINK HAS INSERTS
  0
TEXT
  8
TEXT
 10
-11.139223
 20
10.771227
 30
0.0
 40
1.0
 50
0.0
  1
THAT DO NOT ALLOW
  0
TEXT
  8
TEXT
 10
-11.139223
 20
9.271227
 30
0.0
 40
1.0
 50
0.0
  1
OVERHANG 
  0
ENDSEC
  0
EOF
