  0
SECTION
  2
ENTITIES
  0
ARC
  8
CONSTRUCTION
 10
8.369295
 20
-9.081643
 40
0.25
 50
270.0
 51
0.0
  0
LINE
  8
CONSTRUCTION
 10
8.619295
 11
8.619295
 20
-9.081643
 21
8.418357
  0
ARC
  8
CONSTRUCTION
 10
8.369295
 20
8.418357
 40
0.25
 50
0.0
 51
90.0
  0
LINE
  8
CONSTRUCTION
 10
8.369295
 11
-9.130705
 20
8.668357
 21
8.668357
  0
ARC
  8
CONSTRUCTION
 10
-9.130705
 20
8.418357
 40
0.25
 50
90.0
 51
180.0
  0
LINE
  8
CONSTRUCTION
 10
-9.380705
 11
-9.380705
 20
8.418357
 21
-9.081643
  0
ARC
  8
CONSTRUCTION
 10
-9.130705
 20
-9.081643
 40
0.25
 50
180.0
 51
270.0
  0
LINE
  8
CONSTRUCTION
 10
-9.130705
 11
8.369295
 20
-9.331643
 21
-9.331643
  0
ARC
  8
APS_GEOMETRY
 10
7.494295
 20
-8.206643
 40
0.375
 50
270.0
 51
0.0
  0
LINE
  8
APS_GEOMETRY
 10
7.869295
 11
7.869295
 20
-8.206643
 21
7.543357
  0
ARC
  8
APS_GEOMETRY
 10
7.494295
 20
7.543357
 40
0.375
 50
0.0
 51
90.0
  0
LINE
  8
APS_GEOMETRY
 10
7.494295
 11
-8.255705
 20
7.918357
 21
7.918357
  0
ARC
  8
APS_GEOMETRY
 10
-8.255705
 20
7.543357
 40
0.375
 50
90.0
 51
180.0
  0
LINE
  8
APS_GEOMETRY
 10
-8.630705
 11
-8.630705
 20
7.543357
 21
-8.206643
  0
ARC
  8
APS_GEOMETRY
 10
-8.255705
 20
-8.206643
 40
0.375
 50
180.0
 51
270.0
  0
LINE
  8
APS_GEOMETRY
 10
-8.255705
 11
7.494295
 20
-8.581643
 21
-8.581643
  0
ARC
  8
APS_GEOMETRY
 10
7.494295
 20
-8.206643
 40
0.125
 50
270.0
 51
0.0
  0
LINE
  8
APS_GEOMETRY
 10
7.619295
 11
7.619295
 20
-8.206643
 21
7.543357
  0
ARC
  8
APS_GEOMETRY
 10
7.494295
 20
7.543357
 40
0.125
 50
0.0
 51
90.0
  0
LINE
  8
APS_GEOMETRY
 10
7.494295
 11
-8.255705
 20
7.668357
 21
7.668357
  0
ARC
  8
APS_GEOMETRY
 10
-8.255705
 20
7.543357
 40
0.125
 50
90.0
 51
180.0
  0
LINE
  8
APS_GEOMETRY
 10
-8.380705
 11
-8.380705
 20
7.543357
 21
-8.206643
  0
ARC
  8
APS_GEOMETRY
 10
-8.255705
 20
-8.206643
 40
0.125
 50
180.0
 51
270.0
  0
LINE
  8
APS_GEOMETRY
 10
-8.255705
 11
7.494295
 20
-8.331643
 21
-8.331643
  0
ENDSEC
  0
EOF
