  0
SECTION
  2
ENTITIES
  0
LINE
  8
APS_GEOMETRY
 10
-7.122143
 11
8.127857
 20
-5.730306
 21
-5.730306
  0
ARC
  8
APS_GEOMETRY
 10
8.127857
 20
-5.480306
 40
0.25
 50
270.0
 51
0.0
  0
LINE
  8
APS_GEOMETRY
 10
8.377857
 11
8.377857
 20
-5.480306
 21
11.707194
  0
ARC
  8
APS_GEOMETRY
 10
8.127857
 20
11.707194
 40
0.25
 50
0.0
 51
90.0
  0
LINE
  8
APS_GEOMETRY
 10
8.127857
 11
-7.122143
 20
11.957194
 21
11.957194
  0
ARC
  8
APS_GEOMETRY
 10
-7.122143
 20
11.707194
 40
0.25
 50
90.0
 51
180.0
  0
LINE
  8
APS_GEOMETRY
 10
-7.372143
 11
-7.372143
 20
11.707194
 21
-5.480306
  0
ARC
  8
APS_GEOMETRY
 10
-7.122143
 20
-5.480306
 40
0.25
 50
180.0
 51
270.0
  0
LINE
  8
APS_GEOMETRY
 10
-5.997143
 11
7.002857
 20
-4.730306
 21
-4.730306
  0
ARC
  8
APS_GEOMETRY
 10
7.002857
 20
-4.355306
 40
0.375
 50
270.0
 51
0.0
  0
LINE
  8
APS_GEOMETRY
 10
7.377857
 11
7.377857
 20
-4.355306
 21
10.582194
  0
ARC
  8
APS_GEOMETRY
 10
7.002857
 20
10.582194
 40
0.375
 50
0.0
 51
90.0
  0
LINE
  8
APS_GEOMETRY
 10
7.002857
 11
-5.997143
 20
10.957194
 21
10.957194
  0
ARC
  8
APS_GEOMETRY
 10
-5.997143
 20
10.582194
 40
0.375
 50
90.0
 51
180.0
  0
LINE
  8
APS_GEOMETRY
 10
-6.372143
 11
-6.372143
 20
10.582194
 21
-4.355306
  0
ARC
  8
APS_GEOMETRY
 10
-5.997143
 20
-4.355306
 40
0.375
 50
180.0
 51
270.0
  0
LINE
  8
APS_GEOMETRY
 10
-5.997143
 11
7.002857
 20
-4.480306
 21
-4.480306
  0
ARC
  8
APS_GEOMETRY
 10
7.002857
 20
-4.355306
 40
0.125
 50
270.0
 51
0.0
  0
LINE
  8
APS_GEOMETRY
 10
7.127857
 11
7.127857
 20
-4.355306
 21
10.582194
  0
ARC
  8
APS_GEOMETRY
 10
7.002857
 20
10.582194
 40
0.125
 50
0.0
 51
90.0
  0
LINE
  8
APS_GEOMETRY
 10
7.002857
 11
-5.997143
 20
10.707194
 21
10.707194
  0
ARC
  8
APS_GEOMETRY
 10
-5.997143
 20
10.582194
 40
0.125
 50
90.0
 51
180.0
  0
LINE
  8
APS_GEOMETRY
 10
-6.122143
 11
-6.122143
 20
10.582194
 21
-4.355306
  0
ARC
  8
APS_GEOMETRY
 10
-5.997143
 20
-4.355306
 40
0.125
 50
180.0
 51
270.0
  0
ENDSEC
  0
EOF
