  0
SECTION
  2
ENTITIES
  0
LINE
  8
APS_GEOMETRY
 10
-14.308913
 11
0.128587
 20
14.624985
 21
14.624985
  0
ARC
  8
APS_GEOMETRY
 10
0.128587
 20
14.499985
 40
0.125
 50
0.0
 51
90.0
  0
LINE
  8
APS_GEOMETRY
 10
0.253587
 11
0.253587
 20
14.499985
 21
11.812485
  0
ARC
  8
APS_GEOMETRY
 10
0.378587
 20
11.812485
 40
0.125
 50
180.0
 51
270.0
  0
LINE
  8
APS_GEOMETRY
 10
0.378587
 11
14.128587
 20
11.687485
 21
11.687485
  0
ARC
  8
APS_GEOMETRY
 10
14.128587
 20
11.562485
 40
0.125
 50
0.0
 51
90.0
  0
LINE
  8
APS_GEOMETRY
 10
14.253587
 11
14.253587
 20
11.562485
 21
-3.187515
  0
ARC
  8
APS_GEOMETRY
 10
14.128587
 20
-3.187515
 40
0.125
 50
270.0
 51
0.0
  0
LINE
  8
APS_GEOMETRY
 10
14.128587
 11
-14.308913
 20
-3.312515
 21
-3.312515
  0
ARC
  8
APS_GEOMETRY
 10
-14.308913
 20
-3.187515
 40
0.125
 50
180.0
 51
270.0
  0
LINE
  8
APS_GEOMETRY
 10
-14.433913
 11
-14.433913
 20
-3.187515
 21
14.499985
  0
ARC
  8
APS_GEOMETRY
 10
-14.308913
 20
14.499985
 40
0.125
 50
90.0
 51
180.0
  0
ARC
  8
APS_GEOMETRY
 10
15.316087
 20
-4.375015
 40
0.2187
 50
270.0
 51
0.0
  0
LINE
  8
APS_GEOMETRY
 10
15.534787
 11
15.534787
 20
-4.375015
 21
12.749985
  0
ARC
  8
APS_GEOMETRY
 10
15.316087
 20
12.749985
 40
0.2187
 50
0.0
 51
90.0
  0
LINE
  8
APS_GEOMETRY
 10
15.316087
 11
1.034787
 20
12.968685
 21
12.968685
  0
LINE
  8
APS_GEOMETRY
 10
1.034787
 11
1.034787
 20
12.968685
 21
15.687485
  0
ARC
  8
APS_GEOMETRY
 10
0.816087
 20
15.687485
 40
0.2187
 50
0.0
 51
90.0
  0
LINE
  8
APS_GEOMETRY
 10
0.816087
 11
-15.496413
 20
15.906185
 21
15.906185
  0
ARC
  8
APS_GEOMETRY
 10
-15.496413
 20
15.687485
 40
0.2187
 50
90.0
 51
180.0
  0
LINE
  8
APS_GEOMETRY
 10
-15.715113
 11
-15.715113
 20
15.687485
 21
-4.375015
  0
ARC
  8
APS_GEOMETRY
 10
-15.496413
 20
-4.375015
 40
0.2187
 50
180.0
 51
270.0
  0
LINE
  8
APS_GEOMETRY
 10
-15.496413
 11
15.316087
 20
-4.593715
 21
-4.593715
  0
LINE
  8
APS_GEOMETRY
 10
-14.308913
 11
0.128587
 20
14.874985
 21
14.874985
  0
ARC
  8
APS_GEOMETRY
 10
0.128587
 20
14.499985
 40
0.375
 50
0.0
 51
90.0
  0
LINE
  8
APS_GEOMETRY
 10
0.503587
 11
0.503587
 20
14.499985
 21
11.937485
  0
LINE
  8
APS_GEOMETRY
 10
0.503587
 11
14.128587
 20
11.937485
 21
11.937485
  0
ARC
  8
APS_GEOMETRY
 10
14.128587
 20
11.562485
 40
0.375
 50
0.0
 51
90.0
  0
LINE
  8
APS_GEOMETRY
 10
14.503587
 11
14.503587
 20
11.562485
 21
-3.187515
  0
ARC
  8
APS_GEOMETRY
 10
14.128587
 20
-3.187515
 40
0.375
 50
270.0
 51
0.0
  0
LINE
  8
APS_GEOMETRY
 10
14.128587
 11
-14.308913
 20
-3.562515
 21
-3.562515
  0
ARC
  8
APS_GEOMETRY
 10
-14.308913
 20
-3.187515
 40
0.375
 50
180.0
 51
270.0
  0
LINE
  8
APS_GEOMETRY
 10
-14.683913
 11
-14.683913
 20
-3.187515
 21
14.499985
  0
ARC
  8
APS_GEOMETRY
 10
-14.308913
 20
14.499985
 40
0.375
 50
90.0
 51
180.0
  0
LINE
  8
CONSTRUCTION
 10
1.503587
 11
1.503587
 20
3.063157
 21
7.136809
  0
LINE
  8
CONSTRUCTION
 10
0.503587
 11
0.503587
 20
3.063157
 21
7.136809
  0
TEXT
  8
TEXT
 10
1.234234
 20
3.852875
 30
0.0
 40
0.5
 50
90.0
  1
DIVIDER
  0
ENDSEC
  0
EOF
