  0
SECTION
  2
ENTITIES
  0
LINE
  8
APS_GEOMETRY
 10
0.641536
 11
32.579036
 20
0.290879
 21
0.290879
  0
ARC
  8
APS_GEOMETRY
 10
32.579036
 20
0.540879
 40
0.25
 50
270.0
 51
0.0
  0
LINE
  8
APS_GEOMETRY
 10
32.829036
 11
32.829036
 20
0.540879
 21
18.103379
  0
ARC
  8
APS_GEOMETRY
 10
32.579036
 20
18.103379
 40
0.25
 50
0.0
 51
90.0
  0
LINE
  8
APS_GEOMETRY
 10
32.579036
 11
0.641536
 20
18.353379
 21
18.353379
  0
ARC
  8
APS_GEOMETRY
 10
0.641536
 20
18.103379
 40
0.25
 50
90.0
 51
180.0
  0
LINE
  8
APS_GEOMETRY
 10
0.391536
 11
0.391536
 20
18.103379
 21
0.540879
  0
ARC
  8
APS_GEOMETRY
 10
0.641536
 20
0.540879
 40
0.25
 50
180.0
 51
270.0
  0
LINE
  8
APS_GEOMETRY
 10
1.891536
 11
15.610286
 20
1.306529
 21
1.306529
  0
ARC
  8
APS_GEOMETRY
 10
15.610286
 20
1.806529
 40
0.5
 50
270.0
 51
0.0
  0
LINE
  8
APS_GEOMETRY
 10
16.110286
 11
16.110286
 20
1.806529
 21
16.837729
  0
ARC
  8
APS_GEOMETRY
 10
15.610286
 20
16.837729
 40
0.5
 50
0.0
 51
90.0
  0
LINE
  8
APS_GEOMETRY
 10
15.610286
 11
1.891536
 20
17.337729
 21
17.337729
  0
ARC
  8
APS_GEOMETRY
 10
1.891536
 20
16.837729
 40
0.5
 50
90.0
 51
180.0
  0
LINE
  8
APS_GEOMETRY
 10
1.391536
 11
1.391536
 20
16.837729
 21
1.806529
  0
ARC
  8
APS_GEOMETRY
 10
1.891536
 20
1.806529
 40
0.5
 50
180.0
 51
270.0
  0
LINE
  8
APS_GEOMETRY
 10
17.610286
 11
31.329036
 20
1.306529
 21
1.306529
  0
ARC
  8
APS_GEOMETRY
 10
31.329036
 20
1.806529
 40
0.5
 50
270.0
 51
0.0
  0
LINE
  8
APS_GEOMETRY
 10
31.829036
 11
31.829036
 20
1.806529
 21
16.837729
  0
ARC
  8
APS_GEOMETRY
 10
31.329036
 20
16.837729
 40
0.5
 50
0.0
 51
90.0
  0
LINE
  8
APS_GEOMETRY
 10
31.329036
 11
17.610286
 20
17.337729
 21
17.337729
  0
ARC
  8
APS_GEOMETRY
 10
17.610286
 20
16.837729
 40
0.5
 50
90.0
 51
180.0
  0
LINE
  8
APS_GEOMETRY
 10
17.110286
 11
17.110286
 20
16.837729
 21
1.806529
  0
ARC
  8
APS_GEOMETRY
 10
17.610286
 20
1.806529
 40
0.5
 50
180.0
 51
270.0
  0
LINE
  8
APS_GEOMETRY
 10
1.891536
 11
31.329036
 20
1.556529
 21
1.556529
  0
ARC
  8
APS_GEOMETRY
 10
31.329036
 20
1.806529
 40
0.25
 50
270.0
 51
0.0
  0
LINE
  8
APS_GEOMETRY
 10
31.579036
 11
31.579036
 20
1.806529
 21
16.837729
  0
ARC
  8
APS_GEOMETRY
 10
31.329036
 20
16.837729
 40
0.25
 50
0.0
 51
90.0
  0
LINE
  8
APS_GEOMETRY
 10
31.329036
 11
1.891536
 20
17.087729
 21
17.087729
  0
ARC
  8
APS_GEOMETRY
 10
1.891536
 20
16.837729
 40
0.25
 50
90.0
 51
180.0
  0
LINE
  8
APS_GEOMETRY
 10
1.641536
 11
1.641536
 20
16.837729
 21
1.806529
  0
ARC
  8
APS_GEOMETRY
 10
1.891536
 20
1.806529
 40
0.25
 50
180.0
 51
270.0
  0
ENDSEC
  0
EOF
