  0
SECTION
  2
ENTITIES
  0
LINE
  8
APS_GEOMETRY
 10
14.8125
 11
0.375
 20
11.561827
 21
11.561827
  0
ARC
  8
APS_GEOMETRY
 10
0.375
 20
11.436827
 40
0.125
 50
90.0
 51
180.0
  0
LINE
  8
APS_GEOMETRY
 10
0.25
 11
0.25
 20
11.436827
 21
8.749327
  0
ARC
  8
APS_GEOMETRY
 10
0.125
 20
8.749327
 40
0.125
 50
270.0
 51
0.0
  0
LINE
  8
APS_GEOMETRY
 10
0.125
 11
-13.625
 20
8.624327
 21
8.624327
  0
ARC
  8
APS_GEOMETRY
 10
-13.625
 20
8.499327
 40
0.125
 50
90.0
 51
180.0
  0
LINE
  8
APS_GEOMETRY
 10
-13.75
 11
-13.75
 20
8.499327
 21
-6.250673
  0
ARC
  8
APS_GEOMETRY
 10
-13.625
 20
-6.250673
 40
0.125
 50
180.0
 51
270.0
  0
LINE
  8
APS_GEOMETRY
 10
-13.625
 11
14.8125
 20
-6.375673
 21
-6.375673
  0
ARC
  8
APS_GEOMETRY
 10
14.8125
 20
-6.250673
 40
0.125
 50
270.0
 51
0.0
  0
LINE
  8
APS_GEOMETRY
 10
14.9375
 11
14.9375
 20
-6.250673
 21
11.436827
  0
ARC
  8
APS_GEOMETRY
 10
14.8125
 20
11.436827
 40
0.125
 50
0.0
 51
90.0
  0
ARC
  8
APS_GEOMETRY
 10
-14.8125
 20
-7.438173
 40
0.2187
 50
180.0
 51
270.0
  0
LINE
  8
APS_GEOMETRY
 10
-15.0312
 11
-15.0312
 20
-7.438173
 21
9.686827
  0
ARC
  8
APS_GEOMETRY
 10
-14.8125
 20
9.686827
 40
0.2187
 50
90.0
 51
180.0
  0
LINE
  8
APS_GEOMETRY
 10
-14.8125
 11
-0.5312
 20
9.905527
 21
9.905527
  0
LINE
  8
APS_GEOMETRY
 10
-0.5312
 11
-0.5312
 20
9.905527
 21
12.624327
  0
ARC
  8
APS_GEOMETRY
 10
-0.3125
 20
12.624327
 40
0.2187
 50
90.0
 51
180.0
  0
LINE
  8
APS_GEOMETRY
 10
-0.3125
 11
16.0
 20
12.843027
 21
12.843027
  0
ARC
  8
APS_GEOMETRY
 10
16.0
 20
12.624327
 40
0.2187
 50
0.0
 51
90.0
  0
LINE
  8
APS_GEOMETRY
 10
16.2187
 11
16.2187
 20
12.624327
 21
-7.438173
  0
ARC
  8
APS_GEOMETRY
 10
16.0
 20
-7.438173
 40
0.2187
 50
270.0
 51
0.0
  0
LINE
  8
APS_GEOMETRY
 10
16.0
 11
-14.8125
 20
-7.656873
 21
-7.656873
  0
LINE
  8
APS_GEOMETRY
 10
14.8125
 11
0.375
 20
11.811827
 21
11.811827
  0
ARC
  8
APS_GEOMETRY
 10
0.375
 20
11.436827
 40
0.375
 50
90.0
 51
180.0
  0
LINE
  8
APS_GEOMETRY
 10
0.0
 11
0.0
 20
11.436827
 21
8.874327
  0
LINE
  8
APS_GEOMETRY
 10
0.0
 11
-13.625
 20
8.874327
 21
8.874327
  0
ARC
  8
APS_GEOMETRY
 10
-13.625
 20
8.499327
 40
0.375
 50
90.0
 51
180.0
  0
LINE
  8
APS_GEOMETRY
 10
-14.0
 11
-14.0
 20
8.499327
 21
-6.250673
  0
ARC
  8
APS_GEOMETRY
 10
-13.625
 20
-6.250673
 40
0.375
 50
180.0
 51
270.0
  0
LINE
  8
APS_GEOMETRY
 10
-13.625
 11
14.8125
 20
-6.625673
 21
-6.625673
  0
ARC
  8
APS_GEOMETRY
 10
14.8125
 20
-6.250673
 40
0.375
 50
270.0
 51
0.0
  0
LINE
  8
APS_GEOMETRY
 10
15.1875
 11
15.1875
 20
-6.250673
 21
11.436827
  0
ARC
  8
APS_GEOMETRY
 10
14.8125
 20
11.436827
 40
0.375
 50
0.0
 51
90.0
  0
LINE
  8
CONSTRUCTION
 10
-1.0
 11
-1.0
 20
0.0
 21
4.073652
  0
LINE
  8
CONSTRUCTION
 10
0.0
 11
0.0
 20
0.0
 21
4.073652
  0
TEXT
  8
TEXT
 10
-0.281318
 20
0.789717
 30
0.0
 40
0.5
 50
90.0
  1
DIVIDER
  0
ENDSEC
  0
EOF
