  0
SECTION
  2
HEADER
  9
$ACADVER
  1
AC1009
  9
$FILLMODE
 70
 0
  9
$SPLFRAME
 70
 1
  9
$EXTMIN
 10
0
 20
0
 30
0.0
  9
$EXTMAX
 10
41.6667
 20
41.6667
 30
0.0
  0
ENDSEC
  0
SECTION
  2
TABLES
  0
TABLE
  2
LAYER
 70
1
  0
LAYER
  2
0
 70
     0
 62
     7
  6
CONTINUOUS
  0
ENDTAB
  0
ENDSEC
  0
SECTION
  2
ENTITIES
  0
POLYLINE
  8
0
 62
     240
 66
     1
 10
0
 20
0
 30
0.0
 70
     1
 40
2
 41
2
  0
VERTEX
  8
0
 10
38.376
 20
2
 30
0.0
 40
0.0277778
 41
0.0277778
  0
VERTEX
  8
0
 10
11.624
 20
2
 30
0.0
 40
0.0277778
 41
0.0277778
  0
VERTEX
  8
0
 10
11.5988
 20
2
 30
0.0
 40
0.0277778
 41
0.0277778
  0
VERTEX
  8
0
 10
11.5234
 20
2.01014
 30
0.0
 40
0.0277778
 41
0.0277778
  0
VERTEX
  8
0
 10
11.4297
 20
2.03922
 30
0.0
 40
0.0277778
 41
0.0277778
  0
VERTEX
  8
0
 10
11.345
 20
2.08524
 30
0.0
 40
0.0277778
 41
0.0277778
  0
VERTEX
  8
0
 10
11.2711
 20
2.14615
 30
0.0
 40
0.0277778
 41
0.0277778
  0
VERTEX
  8
0
 10
11.2102
 20
2.22
 30
0.0
 40
0.0277778
 41
0.0277778
  0
VERTEX
  8
0
 10
11.1642
 20
2.30474
 30
0.0
 40
0.0277778
 41
0.0277778
  0
VERTEX
  8
0
 10
11.1351
 20
2.39844
 30
0.0
 40
0.0277778
 41
0.0277778
  0
VERTEX
  8
0
 10
11.125
 20
2.47385
 30
0.0
 40
0.0277778
 41
0.0277778
  0
VERTEX
  8
0
 10
11.125
 20
2.49897
 30
0.0
 40
0.0277778
 41
0.0277778
  0
VERTEX
  8
0
 10
11.125
 20
17.501
 30
0.0
 40
0.0277778
 41
0.0277778
  0
VERTEX
  8
0
 10
11.125
 20
17.5263
 30
0.0
 40
0.0277778
 41
0.0277778
  0
VERTEX
  8
0
 10
11.1351
 20
17.6017
 30
0.0
 40
0.0277778
 41
0.0277778
  0
VERTEX
  8
0
 10
11.1642
 20
17.6953
 30
0.0
 40
0.0277778
 41
0.0277778
  0
VERTEX
  8
0
 10
11.2102
 20
17.78
 30
0.0
 40
0.0277778
 41
0.0277778
  0
VERTEX
  8
0
 10
11.2711
 20
17.8539
 30
0.0
 40
0.0277778
 41
0.0277778
  0
VERTEX
  8
0
 10
11.345
 20
17.9149
 30
0.0
 40
0.0277778
 41
0.0277778
  0
VERTEX
  8
0
 10
11.4297
 20
17.9608
 30
0.0
 40
0.0277778
 41
0.0277778
  0
VERTEX
  8
0
 10
11.5234
 20
17.9899
 30
0.0
 40
0.0277778
 41
0.0277778
  0
VERTEX
  8
0
 10
11.5988
 20
18
 30
0.0
 40
0.0277778
 41
0.0277778
  0
VERTEX
  8
0
 10
11.624
 20
18
 30
0.0
 40
0.0277778
 41
0.0277778
  0
VERTEX
  8
0
 10
38.376
 20
18
 30
0.0
 40
0.0277778
 41
0.0277778
  0
VERTEX
  8
0
 10
38.4011
 20
18
 30
0.0
 40
0.0277778
 41
0.0277778
  0
VERTEX
  8
0
 10
38.4765
 20
17.9899
 30
0.0
 40
0.0277778
 41
0.0277778
  0
VERTEX
  8
0
 10
38.5701
 20
17.9608
 30
0.0
 40
0.0277778
 41
0.0277778
  0
VERTEX
  8
0
 10
38.655
 20
17.9149
 30
0.0
 40
0.0277778
 41
0.0277778
  0
VERTEX
  8
0
 10
38.7289
 20
17.8539
 30
0.0
 40
0.0277778
 41
0.0277778
  0
VERTEX
  8
0
 10
38.7897
 20
17.78
 30
0.0
 40
0.0277778
 41
0.0277778
  0
VERTEX
  8
0
 10
38.8358
 20
17.6953
 30
0.0
 40
0.0277778
 41
0.0277778
  0
VERTEX
  8
0
 10
38.8649
 20
17.6017
 30
0.0
 40
0.0277778
 41
0.0277778
  0
VERTEX
  8
0
 10
38.875
 20
17.5263
 30
0.0
 40
0.0277778
 41
0.0277778
  0
VERTEX
  8
0
 10
38.875
 20
17.501
 30
0.0
 40
0.0277778
 41
0.0277778
  0
VERTEX
  8
0
 10
38.875
 20
2.49897
 30
0.0
 40
0.0277778
 41
0.0277778
  0
VERTEX
  8
0
 10
38.875
 20
2.47385
 30
0.0
 40
0.0277778
 41
0.0277778
  0
VERTEX
  8
0
 10
38.8649
 20
2.39844
 30
0.0
 40
0.0277778
 41
0.0277778
  0
VERTEX
  8
0
 10
38.8358
 20
2.30474
 30
0.0
 40
0.0277778
 41
0.0277778
  0
VERTEX
  8
0
 10
38.7897
 20
2.22
 30
0.0
 40
0.0277778
 41
0.0277778
  0
VERTEX
  8
0
 10
38.7289
 20
2.14615
 30
0.0
 40
0.0277778
 41
0.0277778
  0
VERTEX
  8
0
 10
38.655
 20
2.08524
 30
0.0
 40
0.0277778
 41
0.0277778
  0
VERTEX
  8
0
 10
38.5701
 20
2.03922
 30
0.0
 40
0.0277778
 41
0.0277778
  0
VERTEX
  8
0
 10
38.4765
 20
2.01014
 30
0.0
 40
0.0277778
 41
0.0277778
  0
VERTEX
  8
0
 10
38.4011
 20
2
 30
0.0
 40
0.0277778
 41
0.0277778
  0
VERTEX
  8
0
 10
38.376
 20
2
 30
0.0
 40
0.0277778
 41
0.0277778
  0
SEQEND
 8
0
  0
POLYLINE
  8
0
 62
     0
 66
     1
 10
0
 20
0
 30
0.0
 70
     1
 40
0
 41
0
  0
VERTEX
  8
0
 10
3.57596
 20
23.7357
 30
0.0
 40
0
 41
0
  0
VERTEX
  8
0
 10
3.66297
 20
23.7357
 30
0.0
 40
0
 41
0
  0
VERTEX
  8
0
 10
3.66297
 20
24.0275
 30
0.0
 40
0
 41
0
  0
VERTEX
  8
0
 10
3.74501
 20
24.0275
 30
0.0
 40
0
 41
0
  0
VERTEX
  8
0
 10
3.75792
 20
24.0271
 30
0.0
 40
0
 41
0
  0
VERTEX
  8
0
 10
3.79656
 20
24.0189
 30
0.0
 40
0
 41
0
  0
VERTEX
  8
0
 10
3.83453
 20
23.9958
 30
0.0
 40
0
 41
0
  0
VERTEX
  8
0
 10
3.86149
 20
23.956
 30
0.0
 40
0
 41
0
  0
VERTEX
  8
0
 10
3.87668
 20
23.9118
 30
0.0
 40
0
 41
0
  0
VERTEX
  8
0
 10
3.87999
 20
23.8967
 30
0.0
 40
0
 41
0
  0
VERTEX
  8
0
 10
3.88325
 20
23.8822
 30
0.0
 40
0
 41
0
  0
VERTEX
  8
0
 10
3.89339
 20
23.8388
 30
0.0
 40
0
 41
0
  0
VERTEX
  8
0
 10
3.90539
 20
23.7919
 30
0.0
 40
0
 41
0
  0
VERTEX
  8
0
 10
3.91585
 20
23.7571
 30
0.0
 40
0
 41
0
  0
VERTEX
  8
0
 10
3.92215
 20
23.7404
 30
0.0
 40
0
 41
0
  0
VERTEX
  8
0
 10
3.92492
 20
23.7357
 30
0.0
 40
0
 41
0
  0
VERTEX
  8
0
 10
4.01497
 20
23.7357
 30
0.0
 40
0
 41
0
  0
VERTEX
  8
0
 10
4.01156
 20
23.7421
 30
0.0
 40
0
 41
0
  0
VERTEX
  8
0
 10
4.00396
 20
23.7624
 30
0.0
 40
0
 41
0
  0
VERTEX
  8
0
 10
3.99186
 20
23.8026
 30
0.0
 40
0
 41
0
  0
VERTEX
  8
0
 10
3.97825
 20
23.8557
 30
0.0
 40
0
 41
0
  0
VERTEX
  8
0
 10
3.96664
 20
23.9044
 30
0.0
 40
0
 41
0
  0
VERTEX
  8
0
 10
3.96289
 20
23.9206
 30
0.0
 40
0
 41
0
  0
VERTEX
  8
0
 10
3.96007
 20
23.9329
 30
0.0
 40
0
 41
0
  0
VERTEX
  8
0
 10
3.94792
 20
23.9689
 30
0.0
 40
0
 41
0
  0
VERTEX
  8
0
 10
3.92681
 20
24.0082
 30
0.0
 40
0
 41
0
  0
VERTEX
  8
0
 10
3.89899
 20
24.0376
 30
0.0
 40
0
 41
0
  0
VERTEX
  8
0
 10
3.87321
 20
24.0535
 30
0.0
 40
0
 41
0
  0
VERTEX
  8
0
 10
3.86393
 20
24.0567
 30
0.0
 40
0
 41
0
  0
VERTEX
  8
0
 10
3.86393
 20
24.0597
 30
0.0
 40
0
 41
0
  0
VERTEX
  8
0
 10
3.8769
 20
24.064
 30
0.0
 40
0
 41
0
  0
VERTEX
  8
0
 10
3.91368
 20
24.084
 30
0.0
 40
0
 41
0
  0
VERTEX
  8
0
 10
3.954
 20
24.1212
 30
0.0
 40
0
 41
0
  0
VERTEX
  8
0
 10
3.98101
 20
24.1706
 30
0.0
 40
0
 41
0
  0
VERTEX
  8
0
 10
3.99089
 20
24.2162
 30
0.0
 40
0
 41
0
  0
VERTEX
  8
0
 10
3.99089
 20
24.2315
 30
0.0
 40
0
 41
0
  0
VERTEX
  8
0
 10
3.99089
 20
24.2496
 30
0.0
 40
0
 41
0
  0
VERTEX
  8
0
 10
3.97711
 20
24.3039
 30
0.0
 40
0
 41
0
  0
VERTEX
  8
0
 10
3.9464
 20
24.3521
 30
0.0
 40
0
 41
0
  0
VERTEX
  8
0
 10
3.93793
 20
24.3596
 30
0.0
 40
0
 41
0
  0
VERTEX
  8
0
 10
3.93001
 20
24.3668
 30
0.0
 40
0
 41
0
  0
VERTEX
  8
0
 10
3.90278
 20
24.3842
 30
0.0
 40
0
 41
0
  0
VERTEX
  8
0
 10
3.85949
 20
24.4013
 30
0.0
 40
0
 41
0
  0
VERTEX
  8
0
 10
3.80664
 20
24.4112
 30
0.0
 40
0
 41
0
  0
VERTEX
  8
0
 10
3.75879
 20
24.4144
 30
0.0
 40
0
 41
0
  0
VERTEX
  8
0
 10
3.74283
 20
24.4144
 30
0.0
 40
0
 41
0
  0
VERTEX
  8
0
 10
3.72049
 20
24.4144
 30
0.0
 40
0
 41
0
  0
VERTEX
  8
0
 10
3.65343
 20
24.411
 30
0.0
 40
0
 41
0
  0
VERTEX
  8
0
 10
3.58697
 20
24.4028
 30
0.0
 40
0
 41
0
  0
VERTEX
  8
0
 10
3.57596
 20
24.4006
 30
0.0
 40
0
 41
0
  0
VERTEX
  8
0
 10
3.57596
 20
23.7357
 30
0.0
 40
0
 41
0
  0
SEQEND
 8
0
  0
POLYLINE
  8
0
 62
     0
 66
     1
 10
0
 20
0
 30
0.0
 70
     1
 40
0
 41
0
  0
VERTEX
  8
0
 10
3.66297
 20
24.3396
 30
0.0
 40
0
 41
0
  0
VERTEX
  8
0
 10
3.66644
 20
24.3406
 30
0.0
 40
0
 41
0
  0
VERTEX
  8
0
 10
3.69542
 20
24.345
 30
0.0
 40
0
 41
0
  0
VERTEX
  8
0
 10
3.73551
 20
24.3475
 30
0.0
 40
0
 41
0
  0
VERTEX
  8
0
 10
3.74892
 20
24.3475
 30
0.0
 40
0
 41
0
  0
VERTEX
  8
0
 10
3.76465
 20
24.3474
 30
0.0
 40
0
 41
0
  0
VERTEX
  8
0
 10
3.8119
 20
24.3397
 30
0.0
 40
0
 41
0
  0
VERTEX
  8
0
 10
3.86089
 20
24.3168
 30
0.0
 40
0
 41
0
  0
VERTEX
  8
0
 10
3.89258
 20
24.2778
 30
0.0
 40
0
 41
0
  0
VERTEX
  8
0
 10
3.90386
 20
24.2357
 30
0.0
 40
0
 41
0
  0
VERTEX
  8
0
 10
3.90386
 20
24.2215
 30
0.0
 40
0
 41
0
  0
VERTEX
  8
0
 10
3.90386
 20
24.2085
 30
0.0
 40
0
 41
0
  0
VERTEX
  8
0
 10
3.89318
 20
24.1692
 30
0.0
 40
0
 41
0
  0
VERTEX
  8
0
 10
3.86274
 20
24.1288
 30
0.0
 40
0
 41
0
  0
VERTEX
  8
0
 10
3.81483
 20
24.1028
 30
0.0
 40
0
 41
0
  0
VERTEX
  8
0
 10
3.76764
 20
24.0935
 30
0.0
 40
0
 41
0
  0
VERTEX
  8
0
 10
3.75196
 20
24.0935
 30
0.0
 40
0
 41
0
  0
VERTEX
  8
0
 10
3.66297
 20
24.0935
 30
0.0
 40
0
 41
0
  0
VERTEX
  8
0
 10
3.66297
 20
24.3396
 30
0.0
 40
0
 41
0
  0
SEQEND
 8
0
  0
POLYLINE
  8
0
 62
     0
 66
     1
 10
0
 20
0
 30
0.0
 70
     1
 40
0
 41
0
  0
VERTEX
  8
0
 10
4.49783
 20
23.7357
 30
0.0
 40
0
 41
0
  0
VERTEX
  8
0
 10
4.49783
 20
23.8086
 30
0.0
 40
0
 41
0
  0
VERTEX
  8
0
 10
4.20594
 20
23.8086
 30
0.0
 40
0
 41
0
  0
VERTEX
  8
0
 10
4.20594
 20
23.8108
 30
0.0
 40
0
 41
0
  0
VERTEX
  8
0
 10
4.25782
 20
23.8587
 30
0.0
 40
0
 41
0
  0
VERTEX
  8
0
 10
4.28147
 20
23.8815
 30
0.0
 40
0
 41
0
  0
VERTEX
  8
0
 10
4.35064
 20
23.9521
 30
0.0
 40
0
 41
0
  0
VERTEX
  8
0
 10
4.42122
 20
24.0376
 30
0.0
 40
0
 41
0
  0
VERTEX
  8
0
 10
4.46604
 20
24.121
 30
0.0
 40
0
 41
0
  0
VERTEX
  8
0
 10
4.48178
 20
24.1858
 30
0.0
 40
0
 41
0
  0
VERTEX
  8
0
 10
4.48178
 20
24.2075
 30
0.0
 40
0
 41
0
  0
VERTEX
  8
0
 10
4.48178
 20
24.2162
 30
0.0
 40
0
 41
0
  0
VERTEX
  8
0
 10
4.47894
 20
24.2424
 30
0.0
 40
0
 41
0
  0
VERTEX
  8
0
 10
4.47038
 20
24.2763
 30
0.0
 40
0
 41
0
  0
VERTEX
  8
0
 10
4.45574
 20
24.3082
 30
0.0
 40
0
 41
0
  0
VERTEX
  8
0
 10
4.43485
 20
24.3369
 30
0.0
 40
0
 41
0
  0
VERTEX
  8
0
 10
4.40739
 20
24.3613
 30
0.0
 40
0
 41
0
  0
VERTEX
  8
0
 10
4.37304
 20
24.38
 30
0.0
 40
0
 41
0
  0
VERTEX
  8
0
 10
4.33171
 20
24.3922
 30
0.0
 40
0
 41
0
  0
VERTEX
  8
0
 10
4.29514
 20
24.3965
 30
0.0
 40
0
 41
0
  0
VERTEX
  8
0
 10
4.28299
 20
24.3965
 30
0.0
 40
0
 41
0
  0
VERTEX
  8
0
 10
4.26942
 20
24.3965
 30
0.0
 40
0
 41
0
  0
VERTEX
  8
0
 10
4.22885
 20
24.3915
 30
0.0
 40
0
 41
0
  0
VERTEX
  8
0
 10
4.17964
 20
24.3778
 30
0.0
 40
0
 41
0
  0
VERTEX
  8
0
 10
4.13607
 20
24.3569
 30
0.0
 40
0
 41
0
  0
VERTEX
  8
0
 10
4.10758
 20
24.3378
 30
0.0
 40
0
 41
0
  0
VERTEX
  8
0
 10
4.09896
 20
24.3306
 30
0.0
 40
0
 41
0
  0
VERTEX
  8
0
 10
4.12696
 20
24.2685
 30
0.0
 40
0
 41
0
  0
VERTEX
  8
0
 10
4.13308
 20
24.2736
 30
0.0
 40
0
 41
0
  0
VERTEX
  8
0
 10
4.15283
 20
24.2876
 30
0.0
 40
0
 41
0
  0
VERTEX
  8
0
 10
4.18506
 20
24.3054
 30
0.0
 40
0
 41
0
  0
VERTEX
  8
0
 10
4.22271
 20
24.3185
 30
0.0
 40
0
 41
0
  0
VERTEX
  8
0
 10
4.25439
 20
24.3236
 30
0.0
 40
0
 41
0
  0
VERTEX
  8
0
 10
4.26497
 20
24.3236
 30
0.0
 40
0
 41
0
  0
VERTEX
  8
0
 10
4.28022
 20
24.3236
 30
0.0
 40
0
 41
0
  0
VERTEX
  8
0
 10
4.32601
 20
24.3131
 30
0.0
 40
0
 41
0
  0
VERTEX
  8
0
 10
4.36578
 20
24.2849
 30
0.0
 40
0
 41
0
  0
VERTEX
  8
0
 10
4.38737
 20
24.2443
 30
0.0
 40
0
 41
0
  0
VERTEX
  8
0
 10
4.39388
 20
24.2086
 30
0.0
 40
0
 41
0
  0
VERTEX
  8
0
 10
4.39388
 20
24.1967
 30
0.0
 40
0
 41
0
  0
VERTEX
  8
0
 10
4.39367
 20
24.1786
 30
0.0
 40
0
 41
0
  0
VERTEX
  8
0
 10
4.37896
 20
24.1243
 30
0.0
 40
0
 41
0
  0
VERTEX
  8
0
 10
4.33475
 20
24.049
 30
0.0
 40
0
 41
0
  0
VERTEX
  8
0
 10
4.2596
 20
23.9625
 30
0.0
 40
0
 41
0
  0
VERTEX
  8
0
 10
4.17925
 20
23.8826
 30
0.0
 40
0
 41
0
  0
VERTEX
  8
0
 10
4.15192
 20
23.8565
 30
0.0
 40
0
 41
0
  0
VERTEX
  8
0
 10
4.0829
 20
23.7897
 30
0.0
 40
0
 41
0
  0
VERTEX
  8
0
 10
4.0829
 20
23.7357
 30
0.0
 40
0
 41
0
  0
VERTEX
  8
0
 10
4.49783
 20
23.7357
 30
0.0
 40
0
 41
0
  0
SEQEND
 8
0
  0
POLYLINE
  8
0
 62
     0
 66
     1
 10
0
 20
0
 30
0.0
 70
     1
 40
0
 41
0
  0
VERTEX
  8
0
 10
4.80593
 20
23.7246
 30
0.0
 40
0
 41
0
  0
VERTEX
  8
0
 10
4.81717
 20
23.7246
 30
0.0
 40
0
 41
0
  0
VERTEX
  8
0
 10
4.85097
 20
23.7282
 30
0.0
 40
0
 41
0
  0
VERTEX
  8
0
 10
4.89268
 20
23.7383
 30
0.0
 40
0
 41
0
  0
VERTEX
  8
0
 10
4.93028
 20
23.7546
 30
0.0
 40
0
 41
0
  0
VERTEX
  8
0
 10
4.96283
 20
23.7768
 30
0.0
 40
0
 41
0
  0
VERTEX
  8
0
 10
4.98958
 20
23.8042
 30
0.0
 40
0
 41
0
  0
VERTEX
  8
0
 10
5.00971
 20
23.8364
 30
0.0
 40
0
 41
0
  0
VERTEX
  8
0
 10
5.0224
 20
23.8731
 30
0.0
 40
0
 41
0
  0
VERTEX
  8
0
 10
5.02686
 20
23.9035
 30
0.0
 40
0
 41
0
  0
VERTEX
  8
0
 10
5.02686
 20
23.9136
 30
0.0
 40
0
 41
0
  0
VERTEX
  8
0
 10
5.02686
 20
23.9274
 30
0.0
 40
0
 41
0
  0
VERTEX
  8
0
 10
5.01774
 20
23.9688
 30
0.0
 40
0
 41
0
  0
VERTEX
  8
0
 10
4.99164
 20
24.0153
 30
0.0
 40
0
 41
0
  0
VERTEX
  8
0
 10
4.95036
 20
24.0531
 30
0.0
 40
0
 41
0
  0
VERTEX
  8
0
 10
4.91
 20
24.076
 30
0.0
 40
0
 41
0
  0
VERTEX
  8
0
 10
4.89578
 20
24.0817
 30
0.0
 40
0
 41
0
  0
VERTEX
  8
0
 10
4.89578
 20
24.0846
 30
0.0
 40
0
 41
0
  0
VERTEX
  8
0
 10
4.90918
 20
24.091
 30
0.0
 40
0
 41
0
  0
VERTEX
  8
0
 10
4.94624
 20
24.1167
 30
0.0
 40
0
 41
0
  0
VERTEX
  8
0
 10
4.97928
 20
24.1543
 30
0.0
 40
0
 41
0
  0
VERTEX
  8
0
 10
4.99729
 20
24.195
 30
0.0
 40
0
 41
0
  0
VERTEX
  8
0
 10
5.00276
 20
24.2263
 30
0.0
 40
0
 41
0
  0
VERTEX
  8
0
 10
5.00276
 20
24.2365
 30
0.0
 40
0
 41
0
  0
VERTEX
  8
0
 10
5.00276
 20
24.2514
 30
0.0
 40
0
 41
0
  0
VERTEX
  8
0
 10
4.99094
 20
24.2957
 30
0.0
 40
0
 41
0
  0
VERTEX
  8
0
 10
4.95557
 20
24.3469
 30
0.0
 40
0
 41
0
  0
VERTEX
  8
0
 10
4.89654
 20
24.3829
 30
0.0
 40
0
 41
0
  0
VERTEX
  8
0
 10
4.83458
 20
24.3965
 30
0.0
 40
0
 41
0
  0
VERTEX
  8
0
 10
4.81396
 20
24.3965
 30
0.0
 40
0
 41
0
  0
VERTEX
  8
0
 10
4.8036
 20
24.3965
 30
0.0
 40
0
 41
0
  0
VERTEX
  8
0
 10
4.77251
 20
24.3933
 30
0.0
 40
0
 41
0
  0
VERTEX
  8
0
 10
4.73438
 20
24.384
 30
0.0
 40
0
 41
0
  0
VERTEX
  8
0
 10
4.70019
 20
24.369
 30
0.0
 40
0
 41
0
  0
VERTEX
  8
0
 10
4.67068
 20
24.3487
 30
0.0
 40
0
 41
0
  0
VERTEX
  8
0
 10
4.64649
 20
24.3236
 30
0.0
 40
0
 41
0
  0
VERTEX
  8
0
 10
4.62831
 20
24.294
 30
0.0
 40
0
 41
0
  0
VERTEX
  8
0
 10
4.61692
 20
24.2606
 30
0.0
 40
0
 41
0
  0
VERTEX
  8
0
 10
4.61301
 20
24.2328
 30
0.0
 40
0
 41
0
  0
VERTEX
  8
0
 10
4.61301
 20
24.2235
 30
0.0
 40
0
 41
0
  0
VERTEX
  8
0
 10
4.61301
 20
24.2132
 30
0.0
 40
0
 41
0
  0
VERTEX
  8
0
 10
4.61893
 20
24.1819
 30
0.0
 40
0
 41
0
  0
VERTEX
  8
0
 10
4.63743
 20
24.1424
 30
0.0
 40
0
 41
0
  0
VERTEX
  8
0
 10
4.66938
 20
24.1069
 30
0.0
 40
0
 41
0
  0
VERTEX
  8
0
 10
4.7035
 20
24.0835
 30
0.0
 40
0
 41
0
  0
VERTEX
  8
0
 10
4.71588
 20
24.0776
 30
0.0
 40
0
 41
0
  0
VERTEX
  8
0
 10
4.71696
 20
24.0747
 30
0.0
 40
0
 41
0
  0
VERTEX
  8
0
 10
4.70281
 20
24.0687
 30
0.0
 40
0
 41
0
  0
VERTEX
  8
0
 10
4.66297
 20
24.0446
 30
0.0
 40
0
 41
0
  0
VERTEX
  8
0
 10
4.62235
 20
24.0057
 30
0.0
 40
0
 41
0
  0
VERTEX
  8
0
 10
4.59674
 20
23.9576
 30
0.0
 40
0
 41
0
  0
VERTEX
  8
0
 10
4.58783
 20
23.9149
 30
0.0
 40
0
 41
0
  0
VERTEX
  8
0
 10
4.58783
 20
23.9006
 30
0.0
 40
0
 41
0
  0
VERTEX
  8
0
 10
4.58783
 20
23.8919
 30
0.0
 40
0
 41
0
  0
VERTEX
  8
0
 10
4.59158
 20
23.8658
 30
0.0
 40
0
 41
0
  0
VERTEX
  8
0
 10
4.60275
 20
23.8331
 30
0.0
 40
0
 41
0
  0
VERTEX
  8
0
 10
4.62093
 20
23.8032
 30
0.0
 40
0
 41
0
  0
VERTEX
  8
0
 10
4.64583
 20
23.7769
 30
0.0
 40
0
 41
0
  0
VERTEX
  8
0
 10
4.67708
 20
23.7553
 30
0.0
 40
0
 41
0
  0
VERTEX
  8
0
 10
4.71442
 20
23.7387
 30
0.0
 40
0
 41
0
  0
VERTEX
  8
0
 10
4.75749
 20
23.7283
 30
0.0
 40
0
 41
0
  0
VERTEX
  8
0
 10
4.79378
 20
23.7246
 30
0.0
 40
0
 41
0
  0
VERTEX
  8
0
 10
4.80593
 20
23.7246
 30
0.0
 40
0
 41
0
  0
SEQEND
 8
0
  0
POLYLINE
  8
0
 62
     0
 66
     1
 10
0
 20
0
 30
0.0
 70
     1
 40
0
 41
0
  0
VERTEX
  8
0
 10
4.80789
 20
23.7886
 30
0.0
 40
0
 41
0
  0
VERTEX
  8
0
 10
4.79394
 20
23.7886
 30
0.0
 40
0
 41
0
  0
VERTEX
  8
0
 10
4.75217
 20
23.7988
 30
0.0
 40
0
 41
0
  0
VERTEX
  8
0
 10
4.71067
 20
23.8258
 30
0.0
 40
0
 41
0
  0
VERTEX
  8
0
 10
4.68522
 20
23.8654
 30
0.0
 40
0
 41
0
  0
VERTEX
  8
0
 10
4.67736
 20
23.9008
 30
0.0
 40
0
 41
0
  0
VERTEX
  8
0
 10
4.6779
 20
23.9125
 30
0.0
 40
0
 41
0
  0
VERTEX
  8
0
 10
4.6779
 20
23.9236
 30
0.0
 40
0
 41
0
  0
VERTEX
  8
0
 10
4.68549
 20
23.9567
 30
0.0
 40
0
 41
0
  0
VERTEX
  8
0
 10
4.7079
 20
23.9946
 30
0.0
 40
0
 41
0
  0
VERTEX
  8
0
 10
4.74451
 20
24.0251
 30
0.0
 40
0
 41
0
  0
VERTEX
  8
0
 10
4.78179
 20
24.0429
 30
0.0
 40
0
 41
0
  0
VERTEX
  8
0
 10
4.79486
 20
24.0467
 30
0.0
 40
0
 41
0
  0
VERTEX
  8
0
 10
4.81
 20
24.0424
 30
0.0
 40
0
 41
0
  0
VERTEX
  8
0
 10
4.85428
 20
24.025
 30
0.0
 40
0
 41
0
  0
VERTEX
  8
0
 10
4.89931
 20
23.9958
 30
0.0
 40
0
 41
0
  0
VERTEX
  8
0
 10
4.92785
 20
23.9567
 30
0.0
 40
0
 41
0
  0
VERTEX
  8
0
 10
4.93788
 20
23.9178
 30
0.0
 40
0
 41
0
  0
VERTEX
  8
0
 10
4.93788
 20
23.9047
 30
0.0
 40
0
 41
0
  0
VERTEX
  8
0
 10
4.93788
 20
23.8932
 30
0.0
 40
0
 41
0
  0
VERTEX
  8
0
 10
4.92865
 20
23.8583
 30
0.0
 40
0
 41
0
  0
VERTEX
  8
0
 10
4.9025
 20
23.8215
 30
0.0
 40
0
 41
0
  0
VERTEX
  8
0
 10
4.86149
 20
23.7974
 30
0.0
 40
0
 41
0
  0
VERTEX
  8
0
 10
4.82129
 20
23.7886
 30
0.0
 40
0
 41
0
  0
VERTEX
  8
0
 10
4.80789
 20
23.7886
 30
0.0
 40
0
 41
0
  0
SEQEND
 8
0
  0
POLYLINE
  8
0
 62
     0
 66
     1
 10
0
 20
0
 30
0.0
 70
     1
 40
0
 41
0
  0
VERTEX
  8
0
 10
4.80897
 20
24.3336
 30
0.0
 40
0
 41
0
  0
VERTEX
  8
0
 10
4.82156
 20
24.3336
 30
0.0
 40
0
 41
0
  0
VERTEX
  8
0
 10
4.85932
 20
24.3243
 30
0.0
 40
0
 41
0
  0
VERTEX
  8
0
 10
4.89339
 20
24.3001
 30
0.0
 40
0
 41
0
  0
VERTEX
  8
0
 10
4.91265
 20
24.2661
 30
0.0
 40
0
 41
0
  0
VERTEX
  8
0
 10
4.91878
 20
24.2374
 30
0.0
 40
0
 41
0
  0
VERTEX
  8
0
 10
4.91878
 20
24.2276
 30
0.0
 40
0
 41
0
  0
VERTEX
  8
0
 10
4.91878
 20
24.2175
 30
0.0
 40
0
 41
0
  0
VERTEX
  8
0
 10
4.91118
 20
24.1869
 30
0.0
 40
0
 41
0
  0
VERTEX
  8
0
 10
4.89031
 20
24.1536
 30
0.0
 40
0
 41
0
  0
VERTEX
  8
0
 10
4.85889
 20
24.1278
 30
0.0
 40
0
 41
0
  0
VERTEX
  8
0
 10
4.82992
 20
24.1131
 30
0.0
 40
0
 41
0
  0
VERTEX
  8
0
 10
4.81982
 20
24.1096
 30
0.0
 40
0
 41
0
  0
VERTEX
  8
0
 10
4.80681
 20
24.1131
 30
0.0
 40
0
 41
0
  0
VERTEX
  8
0
 10
4.76882
 20
24.1276
 30
0.0
 40
0
 41
0
  0
VERTEX
  8
0
 10
4.72976
 20
24.1526
 30
0.0
 40
0
 41
0
  0
VERTEX
  8
0
 10
4.70469
 20
24.1863
 30
0.0
 40
0
 41
0
  0
VERTEX
  8
0
 10
4.6959
 20
24.2188
 30
0.0
 40
0
 41
0
  0
VERTEX
  8
0
 10
4.6959
 20
24.2296
 30
0.0
 40
0
 41
0
  0
VERTEX
  8
0
 10
4.6959
 20
24.2396
 30
0.0
 40
0
 41
0
  0
VERTEX
  8
0
 10
4.70329
 20
24.2694
 30
0.0
 40
0
 41
0
  0
VERTEX
  8
0
 10
4.72499
 20
24.3026
 30
0.0
 40
0
 41
0
  0
VERTEX
  8
0
 10
4.76042
 20
24.3251
 30
0.0
 40
0
 41
0
  0
VERTEX
  8
0
 10
4.79682
 20
24.3336
 30
0.0
 40
0
 41
0
  0
VERTEX
  8
0
 10
4.80897
 20
24.3336
 30
0.0
 40
0
 41
0
  0
SEQEND
 8
0
  0
POLYLINE
  8
0
 62
     0
 66
     1
 10
0
 20
0
 30
0.0
 70
     1
 40
0
 41
0
  0
VERTEX
  8
0
 10
5.62483
 20
24.4206
 30
0.0
 40
0
 41
0
  0
VERTEX
  8
0
 10
5.59358
 20
24.4206
 30
0.0
 40
0
 41
0
  0
VERTEX
  8
0
 10
5.5
 20
24.3954
 30
0.0
 40
0
 41
0
  0
VERTEX
  8
0
 10
5.40088
 20
24.3239
 30
0.0
 40
0
 41
0
  0
VERTEX
  8
0
 10
5.33544
 20
24.2122
 30
0.0
 40
0
 41
0
  0
VERTEX
  8
0
 10
5.3119
 20
24.1031
 30
0.0
 40
0
 41
0
  0
VERTEX
  8
0
 10
5.3119
 20
24.0667
 30
0.0
 40
0
 41
0
  0
VERTEX
  8
0
 10
5.3119
 20
24.0318
 30
0.0
 40
0
 41
0
  0
VERTEX
  8
0
 10
5.33421
 20
23.9271
 30
0.0
 40
0
 41
0
  0
VERTEX
  8
0
 10
5.39665
 20
23.8192
 30
0.0
 40
0
 41
0
  0
VERTEX
  8
0
 10
5.4924
 20
23.7494
 30
0.0
 40
0
 41
0
  0
VERTEX
  8
0
 10
5.58421
 20
23.7246
 30
0.0
 40
0
 41
0
  0
VERTEX
  8
0
 10
5.61486
 20
23.7246
 30
0.0
 40
0
 41
0
  0
VERTEX
  8
0
 10
5.64518
 20
23.7246
 30
0.0
 40
0
 41
0
  0
VERTEX
  8
0
 10
5.73622
 20
23.7475
 30
0.0
 40
0
 41
0
  0
VERTEX
  8
0
 10
5.83578
 20
23.8151
 30
0.0
 40
0
 41
0
  0
VERTEX
  8
0
 10
5.90306
 20
23.9264
 30
0.0
 40
0
 41
0
  0
VERTEX
  8
0
 10
5.92779
 20
24.0414
 30
0.0
 40
0
 41
0
  0
VERTEX
  8
0
 10
5.92779
 20
24.0796
 30
0.0
 40
0
 41
0
  0
VERTEX
  8
0
 10
5.92779
 20
24.114
 30
0.0
 40
0
 41
0
  0
VERTEX
  8
0
 10
5.90625
 20
24.2172
 30
0.0
 40
0
 41
0
  0
VERTEX
  8
0
 10
5.84521
 20
24.3251
 30
0.0
 40
0
 41
0
  0
VERTEX
  8
0
 10
5.74968
 20
24.3954
 30
0.0
 40
0
 41
0
  0
VERTEX
  8
0
 10
5.65603
 20
24.4206
 30
0.0
 40
0
 41
0
  0
VERTEX
  8
0
 10
5.62483
 20
24.4206
 30
0.0
 40
0
 41
0
  0
SEQEND
 8
0
  0
POLYLINE
  8
0
 62
     0
 66
     1
 10
0
 20
0
 30
0.0
 70
     1
 40
0
 41
0
  0
VERTEX
  8
0
 10
5.62071
 20
24.3496
 30
0.0
 40
0
 41
0
  0
VERTEX
  8
0
 10
5.64437
 20
24.3496
 30
0.0
 40
0
 41
0
  0
VERTEX
  8
0
 10
5.71544
 20
24.3257
 30
0.0
 40
0
 41
0
  0
VERTEX
  8
0
 10
5.78261
 20
24.2629
 30
0.0
 40
0
 41
0
  0
VERTEX
  8
0
 10
5.82254
 20
24.175
 30
0.0
 40
0
 41
0
  0
VERTEX
  8
0
 10
5.83578
 20
24.1004
 30
0.0
 40
0
 41
0
  0
VERTEX
  8
0
 10
5.83578
 20
24.0756
 30
0.0
 40
0
 41
0
  0
VERTEX
  8
0
 10
5.83578
 20
24.0485
 30
0.0
 40
0
 41
0
  0
VERTEX
  8
0
 10
5.8214
 20
23.9672
 30
0.0
 40
0
 41
0
  0
VERTEX
  8
0
 10
5.77946
 20
23.8782
 30
0.0
 40
0
 41
0
  0
VERTEX
  8
0
 10
5.71169
 20
23.8178
 30
0.0
 40
0
 41
0
  0
VERTEX
  8
0
 10
5.64279
 20
23.7956
 30
0.0
 40
0
 41
0
  0
VERTEX
  8
0
 10
5.61985
 20
23.7956
 30
0.0
 40
0
 41
0
  0
VERTEX
  8
0
 10
5.59694
 20
23.7956
 30
0.0
 40
0
 41
0
  0
VERTEX
  8
0
 10
5.52843
 20
23.8181
 30
0.0
 40
0
 41
0
  0
VERTEX
  8
0
 10
5.46094
 20
23.8782
 30
0.0
 40
0
 41
0
  0
VERTEX
  8
0
 10
5.41911
 20
23.9653
 30
0.0
 40
0
 41
0
  0
VERTEX
  8
0
 10
5.40479
 20
24.0428
 30
0.0
 40
0
 41
0
  0
VERTEX
  8
0
 10
5.40479
 20
24.0686
 30
0.0
 40
0
 41
0
  0
VERTEX
  8
0
 10
5.40479
 20
24.0953
 30
0.0
 40
0
 41
0
  0
VERTEX
  8
0
 10
5.41824
 20
24.175
 30
0.0
 40
0
 41
0
  0
VERTEX
  8
0
 10
5.45876
 20
24.2646
 30
0.0
 40
0
 41
0
  0
VERTEX
  8
0
 10
5.52626
 20
24.3265
 30
0.0
 40
0
 41
0
  0
VERTEX
  8
0
 10
5.59706
 20
24.3496
 30
0.0
 40
0
 41
0
  0
VERTEX
  8
0
 10
5.62071
 20
24.3496
 30
0.0
 40
0
 41
0
  0
SEQEND
 8
0
  0
POLYLINE
  8
0
 62
     0
 66
     1
 10
0
 20
0
 30
0.0
 70
     1
 40
0
 41
0
  0
VERTEX
  8
0
 10
5.99186
 20
24.2196
 30
0.0
 40
0
 41
0
  0
VERTEX
  8
0
 10
6.17589
 20
23.7357
 30
0.0
 40
0
 41
0
  0
VERTEX
  8
0
 10
6.25988
 20
23.7357
 30
0.0
 40
0
 41
0
  0
VERTEX
  8
0
 10
6.44976
 20
24.2196
 30
0.0
 40
0
 41
0
  0
VERTEX
  8
0
 10
6.35775
 20
24.2196
 30
0.0
 40
0
 41
0
  0
VERTEX
  8
0
 10
6.26378
 20
23.9476
 30
0.0
 40
0
 41
0
  0
VERTEX
  8
0
 10
6.25976
 20
23.9367
 30
0.0
 40
0
 41
0
  0
VERTEX
  8
0
 10
6.22553
 20
23.8336
 30
0.0
 40
0
 41
0
  0
VERTEX
  8
0
 10
6.22276
 20
23.8236
 30
0.0
 40
0
 41
0
  0
VERTEX
  8
0
 10
6.21972
 20
23.8236
 30
0.0
 40
0
 41
0
  0
VERTEX
  8
0
 10
6.21724
 20
23.8336
 30
0.0
 40
0
 41
0
  0
VERTEX
  8
0
 10
6.18485
 20
23.9367
 30
0.0
 40
0
 41
0
  0
VERTEX
  8
0
 10
6.18088
 20
23.9476
 30
0.0
 40
0
 41
0
  0
VERTEX
  8
0
 10
6.08583
 20
24.2196
 30
0.0
 40
0
 41
0
  0
VERTEX
  8
0
 10
5.99186
 20
24.2196
 30
0.0
 40
0
 41
0
  0
SEQEND
 8
0
  0
POLYLINE
  8
0
 62
     0
 66
     1
 10
0
 20
0
 30
0.0
 70
     1
 40
0
 41
0
  0
VERTEX
  8
0
 10
6.91162
 20
23.9615
 30
0.0
 40
0
 41
0
  0
VERTEX
  8
0
 10
6.91189
 20
23.9639
 30
0.0
 40
0
 41
0
  0
VERTEX
  8
0
 10
6.91465
 20
23.9929
 30
0.0
 40
0
 41
0
  0
VERTEX
  8
0
 10
6.91465
 20
24.0026
 30
0.0
 40
0
 41
0
  0
VERTEX
  8
0
 10
6.91465
 20
24.021
 30
0.0
 40
0
 41
0
  0
VERTEX
  8
0
 10
6.9056
 20
24.0758
 30
0.0
 40
0
 41
0
  0
VERTEX
  8
0
 10
6.87397
 20
24.1499
 30
0.0
 40
0
 41
0
  0
VERTEX
  8
0
 10
6.81267
 20
24.2074
 30
0.0
 40
0
 41
0
  0
VERTEX
  8
0
 10
6.73926
 20
24.2304
 30
0.0
 40
0
 41
0
  0
VERTEX
  8
0
 10
6.71479
 20
24.2304
 30
0.0
 40
0
 41
0
  0
VERTEX
  8
0
 10
6.69103
 20
24.2304
 30
0.0
 40
0
 41
0
  0
VERTEX
  8
0
 10
6.61979
 20
24.2103
 30
0.0
 40
0
 41
0
  0
VERTEX
  8
0
 10
6.54839
 20
24.1549
 30
0.0
 40
0
 41
0
  0
VERTEX
  8
0
 10
6.50342
 20
24.0719
 30
0.0
 40
0
 41
0
  0
VERTEX
  8
0
 10
6.48779
 20
23.9953
 30
0.0
 40
0
 41
0
  0
VERTEX
  8
0
 10
6.48779
 20
23.9696
 30
0.0
 40
0
 41
0
  0
VERTEX
  8
0
 10
6.48779
 20
23.9447
 30
0.0
 40
0
 41
0
  0
VERTEX
  8
0
 10
6.50401
 20
23.8699
 30
0.0
 40
0
 41
0
  0
VERTEX
  8
0
 10
6.55089
 20
23.7929
 30
0.0
 40
0
 41
0
  0
VERTEX
  8
0
 10
6.62565
 20
23.7433
 30
0.0
 40
0
 41
0
  0
VERTEX
  8
0
 10
6.70063
 20
23.7257
 30
0.0
 40
0
 41
0
  0
VERTEX
  8
0
 10
6.72564
 20
23.7257
 30
0.0
 40
0
 41
0
  0
VERTEX
  8
0
 10
6.73893
 20
23.7257
 30
0.0
 40
0
 41
0
  0
VERTEX
  8
0
 10
6.77892
 20
23.7285
 30
0.0
 40
0
 41
0
  0
VERTEX
  8
0
 10
6.8234
 20
23.7354
 30
0.0
 40
0
 41
0
  0
VERTEX
  8
0
 10
6.85921
 20
23.7451
 30
0.0
 40
0
 41
0
  0
VERTEX
  8
0
 10
6.87993
 20
23.7526
 30
0.0
 40
0
 41
0
  0
VERTEX
  8
0
 10
6.88667
 20
23.7557
 30
0.0
 40
0
 41
0
  0
VERTEX
  8
0
 10
6.87169
 20
23.8186
 30
0.0
 40
0
 41
0
  0
VERTEX
  8
0
 10
6.86344
 20
23.8151
 30
0.0
 40
0
 41
0
  0
VERTEX
  8
0
 10
6.81597
 20
23.8008
 30
0.0
 40
0
 41
0
  0
VERTEX
  8
0
 10
6.75732
 20
23.7936
 30
0.0
 40
0
 41
0
  0
VERTEX
  8
0
 10
6.73779
 20
23.7936
 30
0.0
 40
0
 41
0
  0
VERTEX
  8
0
 10
6.72206
 20
23.7936
 30
0.0
 40
0
 41
0
  0
VERTEX
  8
0
 10
6.67492
 20
23.8032
 30
0.0
 40
0
 41
0
  0
VERTEX
  8
0
 10
6.62244
 20
23.8331
 30
0.0
 40
0
 41
0
  0
VERTEX
  8
0
 10
6.5861
 20
23.8851
 30
0.0
 40
0
 41
0
  0
VERTEX
  8
0
 10
6.57206
 20
23.9425
 30
0.0
 40
0
 41
0
  0
VERTEX
  8
0
 10
6.57178
 20
23.9615
 30
0.0
 40
0
 41
0
  0
VERTEX
  8
0
 10
6.91162
 20
23.9615
 30
0.0
 40
0
 41
0
  0
SEQEND
 8
0
  0
POLYLINE
  8
0
 62
     0
 66
     1
 10
0
 20
0
 30
0.0
 70
     1
 40
0
 41
0
  0
VERTEX
  8
0
 10
6.57286
 20
24.0246
 30
0.0
 40
0
 41
0
  0
VERTEX
  8
0
 10
6.57422
 20
24.0367
 30
0.0
 40
0
 41
0
  0
VERTEX
  8
0
 10
6.58436
 20
24.0726
 30
0.0
 40
0
 41
0
  0
VERTEX
  8
0
 10
6.6096
 20
24.1189
 30
0.0
 40
0
 41
0
  0
VERTEX
  8
0
 10
6.65018
 20
24.1537
 30
0.0
 40
0
 41
0
  0
VERTEX
  8
0
 10
6.69342
 20
24.1675
 30
0.0
 40
0
 41
0
  0
VERTEX
  8
0
 10
6.70785
 20
24.1675
 30
0.0
 40
0
 41
0
  0
VERTEX
  8
0
 10
6.71625
 20
24.1675
 30
0.0
 40
0
 41
0
  0
VERTEX
  8
0
 10
6.74149
 20
24.1638
 30
0.0
 40
0
 41
0
  0
VERTEX
  8
0
 10
6.76878
 20
24.1531
 30
0.0
 40
0
 41
0
  0
VERTEX
  8
0
 10
6.79015
 20
24.1371
 30
0.0
 40
0
 41
0
  0
VERTEX
  8
0
 10
6.80626
 20
24.1171
 30
0.0
 40
0
 41
0
  0
VERTEX
  8
0
 10
6.81765
 20
24.0944
 30
0.0
 40
0
 41
0
  0
VERTEX
  8
0
 10
6.82503
 20
24.0706
 30
0.0
 40
0
 41
0
  0
VERTEX
  8
0
 10
6.82883
 20
24.0468
 30
0.0
 40
0
 41
0
  0
VERTEX
  8
0
 10
6.82986
 20
24.0301
 30
0.0
 40
0
 41
0
  0
VERTEX
  8
0
 10
6.82981
 20
24.0246
 30
0.0
 40
0
 41
0
  0
VERTEX
  8
0
 10
6.57286
 20
24.0246
 30
0.0
 40
0
 41
0
  0
SEQEND
 8
0
  0
POLYLINE
  8
0
 62
     0
 66
     1
 10
0
 20
0
 30
0.0
 70
     1
 40
0
 41
0
  0
VERTEX
  8
0
 10
7.02371
 20
23.7357
 30
0.0
 40
0
 41
0
  0
VERTEX
  8
0
 10
7.11074
 20
23.7357
 30
0.0
 40
0
 41
0
  0
VERTEX
  8
0
 10
7.11074
 20
23.9938
 30
0.0
 40
0
 41
0
  0
VERTEX
  8
0
 10
7.11074
 20
24.0039
 30
0.0
 40
0
 41
0
  0
VERTEX
  8
0
 10
7.11431
 20
24.0315
 30
0.0
 40
0
 41
0
  0
VERTEX
  8
0
 10
7.11486
 20
24.0344
 30
0.0
 40
0
 41
0
  0
VERTEX
  8
0
 10
7.11692
 20
24.0461
 30
0.0
 40
0
 41
0
  0
VERTEX
  8
0
 10
7.12956
 20
24.08
 30
0.0
 40
0
 41
0
  0
VERTEX
  8
0
 10
7.15494
 20
24.1158
 30
0.0
 40
0
 41
0
  0
VERTEX
  8
0
 10
7.18972
 20
24.1392
 30
0.0
 40
0
 41
0
  0
VERTEX
  8
0
 10
7.22194
 20
24.1476
 30
0.0
 40
0
 41
0
  0
VERTEX
  8
0
 10
7.23269
 20
24.1476
 30
0.0
 40
0
 41
0
  0
VERTEX
  8
0
 10
7.24018
 20
24.1476
 30
0.0
 40
0
 41
0
  0
VERTEX
  8
0
 10
7.26042
 20
24.145
 30
0.0
 40
0
 41
0
  0
VERTEX
  8
0
 10
7.26264
 20
24.1446
 30
0.0
 40
0
 41
0
  0
VERTEX
  8
0
 10
7.26264
 20
24.2276
 30
0.0
 40
0
 41
0
  0
VERTEX
  8
0
 10
7.26064
 20
24.2282
 30
0.0
 40
0
 41
0
  0
VERTEX
  8
0
 10
7.24338
 20
24.2304
 30
0.0
 40
0
 41
0
  0
VERTEX
  8
0
 10
7.23768
 20
24.2304
 30
0.0
 40
0
 41
0
  0
VERTEX
  8
0
 10
7.227
 20
24.2304
 30
0.0
 40
0
 41
0
  0
VERTEX
  8
0
 10
7.19493
 20
24.2231
 30
0.0
 40
0
 41
0
  0
VERTEX
  8
0
 10
7.15679
 20
24.2019
 30
0.0
 40
0
 41
0
  0
VERTEX
  8
0
 10
7.12565
 20
24.1685
 30
0.0
 40
0
 41
0
  0
VERTEX
  8
0
 10
7.10764
 20
24.1361
 30
0.0
 40
0
 41
0
  0
VERTEX
  8
0
 10
7.10379
 20
24.1246
 30
0.0
 40
0
 41
0
  0
VERTEX
  8
0
 10
7.09967
 20
24.1246
 30
0.0
 40
0
 41
0
  0
VERTEX
  8
0
 10
7.09685
 20
24.2196
 30
0.0
 40
0
 41
0
  0
VERTEX
  8
0
 10
7.01981
 20
24.2196
 30
0.0
 40
0
 41
0
  0
VERTEX
  8
0
 10
7.02056
 20
24.2083
 30
0.0
 40
0
 41
0
  0
VERTEX
  8
0
 10
7.02289
 20
24.1486
 30
0.0
 40
0
 41
0
  0
VERTEX
  8
0
 10
7.02371
 20
24.0886
 30
0.0
 40
0
 41
0
  0
VERTEX
  8
0
 10
7.02371
 20
24.0686
 30
0.0
 40
0
 41
0
  0
VERTEX
  8
0
 10
7.02371
 20
23.7357
 30
0.0
 40
0
 41
0
  0
SEQEND
 8
0
  0
POLYLINE
  8
0
 62
     0
 66
     1
 10
0
 20
0
 30
0.0
 70
     1
 40
0
 41
0
  0
VERTEX
  8
0
 10
7.69358
 20
23.7357
 30
0.0
 40
0
 41
0
  0
VERTEX
  8
0
 10
7.69211
 20
23.7439
 30
0.0
 40
0
 41
0
  0
VERTEX
  8
0
 10
7.68744
 20
23.7903
 30
0.0
 40
0
 41
0
  0
VERTEX
  8
0
 10
7.68576
 20
23.8362
 30
0.0
 40
0
 41
0
  0
VERTEX
  8
0
 10
7.68576
 20
23.8515
 30
0.0
 40
0
 41
0
  0
VERTEX
  8
0
 10
7.68576
 20
24.0325
 30
0.0
 40
0
 41
0
  0
VERTEX
  8
0
 10
7.68576
 20
24.0417
 30
0.0
 40
0
 41
0
  0
VERTEX
  8
0
 10
7.68392
 20
24.0689
 30
0.0
 40
0
 41
0
  0
VERTEX
  8
0
 10
7.67779
 20
24.1044
 30
0.0
 40
0
 41
0
  0
VERTEX
  8
0
 10
7.66656
 20
24.1378
 30
0.0
 40
0
 41
0
  0
VERTEX
  8
0
 10
7.64925
 20
24.1679
 30
0.0
 40
0
 41
0
  0
VERTEX
  8
0
 10
7.625
 20
24.1935
 30
0.0
 40
0
 41
0
  0
VERTEX
  8
0
 10
7.59289
 20
24.2132
 30
0.0
 40
0
 41
0
  0
VERTEX
  8
0
 10
7.55208
 20
24.226
 30
0.0
 40
0
 41
0
  0
VERTEX
  8
0
 10
7.51432
 20
24.2304
 30
0.0
 40
0
 41
0
  0
VERTEX
  8
0
 10
7.50174
 20
24.2304
 30
0.0
 40
0
 41
0
  0
VERTEX
  8
0
 10
7.47988
 20
24.2304
 30
0.0
 40
0
 41
0
  0
VERTEX
  8
0
 10
7.41439
 20
24.2188
 30
0.0
 40
0
 41
0
  0
VERTEX
  8
0
 10
7.35271
 20
24.194
 30
0.0
 40
0
 41
0
  0
VERTEX
  8
0
 10
7.34267
 20
24.1875
 30
0.0
 40
0
 41
0
  0
VERTEX
  8
0
 10
7.36285
 20
24.1296
 30
0.0
 40
0
 41
0
  0
VERTEX
  8
0
 10
7.37131
 20
24.135
 30
0.0
 40
0
 41
0
  0
VERTEX
  8
0
 10
7.4216
 20
24.1558
 30
0.0
 40
0
 41
0
  0
VERTEX
  8
0
 10
7.4719
 20
24.1656
 30
0.0
 40
0
 41
0
  0
VERTEX
  8
0
 10
7.48872
 20
24.1656
 30
0.0
 40
0
 41
0
  0
VERTEX
  8
0
 10
7.49696
 20
24.1656
 30
0.0
 40
0
 41
0
  0
VERTEX
  8
0
 10
7.52181
 20
24.1625
 30
0.0
 40
0
 41
0
  0
VERTEX
  8
0
 10
7.54764
 20
24.1537
 30
0.0
 40
0
 41
0
  0
VERTEX
  8
0
 10
7.567
 20
24.1407
 30
0.0
 40
0
 41
0
  0
VERTEX
  8
0
 10
7.58083
 20
24.1246
 30
0.0
 40
0
 41
0
  0
VERTEX
  8
0
 10
7.59
 20
24.1067
 30
0.0
 40
0
 41
0
  0
VERTEX
  8
0
 10
7.59543
 20
24.0879
 30
0.0
 40
0
 41
0
  0
VERTEX
  8
0
 10
7.59804
 20
24.0699
 30
0.0
 40
0
 41
0
  0
VERTEX
  8
0
 10
7.59874
 20
24.0576
 30
0.0
 40
0
 41
0
  0
VERTEX
  8
0
 10
7.59874
 20
24.0536
 30
0.0
 40
0
 41
0
  0
VERTEX
  8
0
 10
7.59874
 20
24.0436
 30
0.0
 40
0
 41
0
  0
VERTEX
  8
0
 10
7.56765
 20
24.0439
 30
0.0
 40
0
 41
0
  0
VERTEX
  8
0
 10
7.47433
 20
24.0325
 30
0.0
 40
0
 41
0
  0
VERTEX
  8
0
 10
7.38308
 20
23.9979
 30
0.0
 40
0
 41
0
  0
VERTEX
  8
0
 10
7.32687
 20
23.9414
 30
0.0
 40
0
 41
0
  0
VERTEX
  8
0
 10
7.30772
 20
23.8832
 30
0.0
 40
0
 41
0
  0
VERTEX
  8
0
 10
7.30772
 20
23.8637
 30
0.0
 40
0
 41
0
  0
VERTEX
  8
0
 10
7.30772
 20
23.851
 30
0.0
 40
0
 41
0
  0
VERTEX
  8
0
 10
7.31706
 20
23.8125
 30
0.0
 40
0
 41
0
  0
VERTEX
  8
0
 10
7.345
 20
23.7679
 30
0.0
 40
0
 41
0
  0
VERTEX
  8
0
 10
7.39128
 20
23.7365
 30
0.0
 40
0
 41
0
  0
VERTEX
  8
0
 10
7.43961
 20
23.7246
 30
0.0
 40
0
 41
0
  0
VERTEX
  8
0
 10
7.45574
 20
23.7246
 30
0.0
 40
0
 41
0
  0
VERTEX
  8
0
 10
7.46783
 20
23.7246
 30
0.0
 40
0
 41
0
  0
VERTEX
  8
0
 10
7.50413
 20
23.7306
 30
0.0
 40
0
 41
0
  0
VERTEX
  8
0
 10
7.54542
 20
23.7464
 30
0.0
 40
0
 41
0
  0
VERTEX
  8
0
 10
7.57883
 20
23.7694
 30
0.0
 40
0
 41
0
  0
VERTEX
  8
0
 10
7.59842
 20
23.7892
 30
0.0
 40
0
 41
0
  0
VERTEX
  8
0
 10
7.60374
 20
23.7967
 30
0.0
 40
0
 41
0
  0
VERTEX
  8
0
 10
7.60678
 20
23.7967
 30
0.0
 40
0
 41
0
  0
VERTEX
  8
0
 10
7.61372
 20
23.7357
 30
0.0
 40
0
 41
0
  0
VERTEX
  8
0
 10
7.69358
 20
23.7357
 30
0.0
 40
0
 41
0
  0
SEQEND
 8
0
  0
POLYLINE
  8
0
 62
     0
 66
     1
 10
0
 20
0
 30
0.0
 70
     1
 40
0
 41
0
  0
VERTEX
  8
0
 10
7.60069
 20
23.8986
 30
0.0
 40
0
 41
0
  0
VERTEX
  8
0
 10
7.60069
 20
23.8917
 30
0.0
 40
0
 41
0
  0
VERTEX
  8
0
 10
7.59646
 20
23.8729
 30
0.0
 40
0
 41
0
  0
VERTEX
  8
0
 10
7.59571
 20
23.8707
 30
0.0
 40
0
 41
0
  0
VERTEX
  8
0
 10
7.59304
 20
23.8628
 30
0.0
 40
0
 41
0
  0
VERTEX
  8
0
 10
7.5804
 20
23.8407
 30
0.0
 40
0
 41
0
  0
VERTEX
  8
0
 10
7.55561
 20
23.8149
 30
0.0
 40
0
 41
0
  0
VERTEX
  8
0
 10
7.5216
 20
23.7967
 30
0.0
 40
0
 41
0
  0
VERTEX
  8
0
 10
7.48942
 20
23.7897
 30
0.0
 40
0
 41
0
  0
VERTEX
  8
0
 10
7.47874
 20
23.7897
 30
0.0
 40
0
 41
0
  0
VERTEX
  8
0
 10
7.47071
 20
23.7897
 30
0.0
 40
0
 41
0
  0
VERTEX
  8
0
 10
7.44678
 20
23.7949
 30
0.0
 40
0
 41
0
  0
VERTEX
  8
0
 10
7.42042
 20
23.8103
 30
0.0
 40
0
 41
0
  0
VERTEX
  8
0
 10
7.40246
 20
23.8365
 30
0.0
 40
0
 41
0
  0
VERTEX
  8
0
 10
7.39583
 20
23.8644
 30
0.0
 40
0
 41
0
  0
VERTEX
  8
0
 10
7.39583
 20
23.8738
 30
0.0
 40
0
 41
0
  0
VERTEX
  8
0
 10
7.39583
 20
23.8817
 30
0.0
 40
0
 41
0
  0
VERTEX
  8
0
 10
7.40067
 20
23.9056
 30
0.0
 40
0
 41
0
  0
VERTEX
  8
0
 10
7.41433
 20
23.9307
 30
0.0
 40
0
 41
0
  0
VERTEX
  8
0
 10
7.43533
 20
23.95
 30
0.0
 40
0
 41
0
  0
VERTEX
  8
0
 10
7.46229
 20
23.9642
 30
0.0
 40
0
 41
0
  0
VERTEX
  8
0
 10
7.49371
 20
23.9739
 30
0.0
 40
0
 41
0
  0
VERTEX
  8
0
 10
7.52821
 20
23.9797
 30
0.0
 40
0
 41
0
  0
VERTEX
  8
0
 10
7.56435
 20
23.9824
 30
0.0
 40
0
 41
0
  0
VERTEX
  8
0
 10
7.59158
 20
23.9829
 30
0.0
 40
0
 41
0
  0
VERTEX
  8
0
 10
7.60069
 20
23.9826
 30
0.0
 40
0
 41
0
  0
VERTEX
  8
0
 10
7.60069
 20
23.8986
 30
0.0
 40
0
 41
0
  0
SEQEND
 8
0
  0
POLYLINE
  8
0
 62
     0
 66
     1
 10
0
 20
0
 30
0.0
 70
     1
 40
0
 41
0
  0
VERTEX
  8
0
 10
7.82769
 20
23.7357
 30
0.0
 40
0
 41
0
  0
VERTEX
  8
0
 10
7.91581
 20
23.7357
 30
0.0
 40
0
 41
0
  0
VERTEX
  8
0
 10
7.91581
 20
24.4456
 30
0.0
 40
0
 41
0
  0
VERTEX
  8
0
 10
7.82769
 20
24.4456
 30
0.0
 40
0
 41
0
  0
VERTEX
  8
0
 10
7.82769
 20
23.7357
 30
0.0
 40
0
 41
0
  0
SEQEND
 8
0
  0
POLYLINE
  8
0
 62
     0
 66
     1
 10
0
 20
0
 30
0.0
 70
     1
 40
0
 41
0
  0
VERTEX
  8
0
 10
8.06364
 20
23.7357
 30
0.0
 40
0
 41
0
  0
VERTEX
  8
0
 10
8.15175
 20
23.7357
 30
0.0
 40
0
 41
0
  0
VERTEX
  8
0
 10
8.15175
 20
24.4456
 30
0.0
 40
0
 41
0
  0
VERTEX
  8
0
 10
8.06364
 20
24.4456
 30
0.0
 40
0
 41
0
  0
VERTEX
  8
0
 10
8.06364
 20
23.7357
 30
0.0
 40
0
 41
0
  0
SEQEND
 8
0
  0
POLYLINE
  8
0
 62
     0
 66
     1
 10
0
 20
0
 30
0.0
 70
     1
 40
0
 41
0
  0
VERTEX
  8
0
 10
8.5146
 20
23.7376
 30
0.0
 40
0
 41
0
  0
VERTEX
  8
0
 10
8.52561
 20
23.7364
 30
0.0
 40
0
 41
0
  0
VERTEX
  8
0
 10
8.58681
 20
23.7318
 30
0.0
 40
0
 41
0
  0
VERTEX
  8
0
 10
8.6511
 20
23.7296
 30
0.0
 40
0
 41
0
  0
VERTEX
  8
0
 10
8.67258
 20
23.7296
 30
0.0
 40
0
 41
0
  0
VERTEX
  8
0
 10
8.69581
 20
23.7296
 30
0.0
 40
0
 41
0
  0
VERTEX
  8
0
 10
8.76546
 20
23.736
 30
0.0
 40
0
 41
0
  0
VERTEX
  8
0
 10
8.847
 20
23.7544
 30
0.0
 40
0
 41
0
  0
VERTEX
  8
0
 10
8.91581
 20
23.785
 30
0.0
 40
0
 41
0
  0
VERTEX
  8
0
 10
8.9585
 20
23.8146
 30
0.0
 40
0
 41
0
  0
VERTEX
  8
0
 10
8.97054
 20
23.8267
 30
0.0
 40
0
 41
0
  0
VERTEX
  8
0
 10
8.98628
 20
23.8421
 30
0.0
 40
0
 41
0
  0
VERTEX
  8
0
 10
9.04264
 20
23.9396
 30
0.0
 40
0
 41
0
  0
VERTEX
  8
0
 10
9.06754
 20
24.0514
 30
0.0
 40
0
 41
0
  0
VERTEX
  8
0
 10
9.06754
 20
24.0886
 30
0.0
 40
0
 41
0
  0
VERTEX
  8
0
 10
9.06754
 20
24.1239
 30
0.0
 40
0
 41
0
  0
VERTEX
  8
0
 10
9.04249
 20
24.2299
 30
0.0
 40
0
 41
0
  0
VERTEX
  8
0
 10
8.98747
 20
24.3168
 30
0.0
 40
0
 41
0
  0
VERTEX
  8
0
 10
8.9725
 20
24.3306
 30
0.0
 40
0
 41
0
  0
VERTEX
  8
0
 10
8.95774
 20
24.3443
 30
0.0
 40
0
 41
0
  0
VERTEX
  8
0
 10
8.86074
 20
24.3931
 30
0.0
 40
0
 41
0
  0
VERTEX
  8
0
 10
8.73981
 20
24.4144
 30
0.0
 40
0
 41
0
  0
VERTEX
  8
0
 10
8.69949
 20
24.4144
 30
0.0
 40
0
 41
0
  0
VERTEX
  8
0
 10
8.67486
 20
24.4144
 30
0.0
 40
0
 41
0
  0
VERTEX
  8
0
 10
8.60107
 20
24.4104
 30
0.0
 40
0
 41
0
  0
VERTEX
  8
0
 10
8.52783
 20
24.4025
 30
0.0
 40
0
 41
0
  0
VERTEX
  8
0
 10
8.5146
 20
24.4006
 30
0.0
 40
0
 41
0
  0
VERTEX
  8
0
 10
8.5146
 20
23.7376
 30
0.0
 40
0
 41
0
  0
SEQEND
 8
0
  0
POLYLINE
  8
0
 62
     0
 66
     1
 10
0
 20
0
 30
0.0
 70
     1
 40
0
 41
0
  0
VERTEX
  8
0
 10
8.60161
 20
24.3365
 30
0.0
 40
0
 41
0
  0
VERTEX
  8
0
 10
8.60736
 20
24.3378
 30
0.0
 40
0
 41
0
  0
VERTEX
  8
0
 10
8.64432
 20
24.3429
 30
0.0
 40
0
 41
0
  0
VERTEX
  8
0
 10
8.68875
 20
24.3456
 30
0.0
 40
0
 41
0
  0
VERTEX
  8
0
 10
8.70361
 20
24.3456
 30
0.0
 40
0
 41
0
  0
VERTEX
  8
0
 10
8.73367
 20
24.3456
 30
0.0
 40
0
 41
0
  0
VERTEX
  8
0
 10
8.82389
 20
24.3272
 30
0.0
 40
0
 41
0
  0
VERTEX
  8
0
 10
8.90935
 20
24.2751
 30
0.0
 40
0
 41
0
  0
VERTEX
  8
0
 10
8.96007
 20
24.1932
 30
0.0
 40
0
 41
0
  0
VERTEX
  8
0
 10
8.97657
 20
24.1124
 30
0.0
 40
0
 41
0
  0
VERTEX
  8
0
 10
8.9764
 20
24.0856
 30
0.0
 40
0
 41
0
  0
VERTEX
  8
0
 10
8.9764
 20
24.0551
 30
0.0
 40
0
 41
0
  0
VERTEX
  8
0
 10
8.95768
 20
23.9642
 30
0.0
 40
0
 41
0
  0
VERTEX
  8
0
 10
8.90267
 20
23.8744
 30
0.0
 40
0
 41
0
  0
VERTEX
  8
0
 10
8.81278
 20
23.8187
 30
0.0
 40
0
 41
0
  0
VERTEX
  8
0
 10
8.72032
 20
23.7997
 30
0.0
 40
0
 41
0
  0
VERTEX
  8
0
 10
8.68951
 20
23.7997
 30
0.0
 40
0
 41
0
  0
VERTEX
  8
0
 10
8.67736
 20
23.7997
 30
0.0
 40
0
 41
0
  0
VERTEX
  8
0
 10
8.64106
 20
23.8007
 30
0.0
 40
0
 41
0
  0
VERTEX
  8
0
 10
8.6071
 20
23.8036
 30
0.0
 40
0
 41
0
  0
VERTEX
  8
0
 10
8.60161
 20
23.8047
 30
0.0
 40
0
 41
0
  0
VERTEX
  8
0
 10
8.60161
 20
24.3365
 30
0.0
 40
0
 41
0
  0
SEQEND
 8
0
  0
POLYLINE
  8
0
 62
     0
 66
     1
 10
0
 20
0
 30
0.0
 70
     1
 40
0
 41
0
  0
VERTEX
  8
0
 10
9.26563
 20
23.7357
 30
0.0
 40
0
 41
0
  0
VERTEX
  8
0
 10
9.26563
 20
24.2196
 30
0.0
 40
0
 41
0
  0
VERTEX
  8
0
 10
9.17751
 20
24.2196
 30
0.0
 40
0
 41
0
  0
VERTEX
  8
0
 10
9.17751
 20
23.7357
 30
0.0
 40
0
 41
0
  0
VERTEX
  8
0
 10
9.26563
 20
23.7357
 30
0.0
 40
0
 41
0
  0
SEQEND
 8
0
  0
POLYLINE
  8
0
 62
     0
 66
     1
 10
0
 20
0
 30
0.0
 70
     1
 40
0
 41
0
  0
VERTEX
  8
0
 10
9.22157
 20
24.4106
 30
0.0
 40
0
 41
0
  0
VERTEX
  8
0
 10
9.21604
 20
24.4106
 30
0.0
 40
0
 41
0
  0
VERTEX
  8
0
 10
9.19949
 20
24.4064
 30
0.0
 40
0
 41
0
  0
VERTEX
  8
0
 10
9.18212
 20
24.3947
 30
0.0
 40
0
 41
0
  0
VERTEX
  8
0
 10
9.17074
 20
24.3772
 30
0.0
 40
0
 41
0
  0
VERTEX
  8
0
 10
9.16667
 20
24.361
 30
0.0
 40
0
 41
0
  0
VERTEX
  8
0
 10
9.16667
 20
24.3554
 30
0.0
 40
0
 41
0
  0
VERTEX
  8
0
 10
9.16667
 20
24.3501
 30
0.0
 40
0
 41
0
  0
VERTEX
  8
0
 10
9.17057
 20
24.3344
 30
0.0
 40
0
 41
0
  0
VERTEX
  8
0
 10
9.18147
 20
24.3172
 30
0.0
 40
0
 41
0
  0
VERTEX
  8
0
 10
9.19824
 20
24.3057
 30
0.0
 40
0
 41
0
  0
VERTEX
  8
0
 10
9.21425
 20
24.3014
 30
0.0
 40
0
 41
0
  0
VERTEX
  8
0
 10
9.21962
 20
24.3014
 30
0.0
 40
0
 41
0
  0
VERTEX
  8
0
 10
9.22547
 20
24.3014
 30
0.0
 40
0
 41
0
  0
VERTEX
  8
0
 10
9.24322
 20
24.3057
 30
0.0
 40
0
 41
0
  0
VERTEX
  8
0
 10
9.26101
 20
24.3172
 30
0.0
 40
0
 41
0
  0
VERTEX
  8
0
 10
9.27214
 20
24.3344
 30
0.0
 40
0
 41
0
  0
VERTEX
  8
0
 10
9.27572
 20
24.3503
 30
0.0
 40
0
 41
0
  0
VERTEX
  8
0
 10
9.27561
 20
24.3554
 30
0.0
 40
0
 41
0
  0
VERTEX
  8
0
 10
9.27561
 20
24.361
 30
0.0
 40
0
 41
0
  0
VERTEX
  8
0
 10
9.27175
 20
24.3772
 30
0.0
 40
0
 41
0
  0
VERTEX
  8
0
 10
9.26096
 20
24.3947
 30
0.0
 40
0
 41
0
  0
VERTEX
  8
0
 10
9.24393
 20
24.4064
 30
0.0
 40
0
 41
0
  0
VERTEX
  8
0
 10
9.22715
 20
24.4106
 30
0.0
 40
0
 41
0
  0
VERTEX
  8
0
 10
9.22157
 20
24.4106
 30
0.0
 40
0
 41
0
  0
SEQEND
 8
0
  0
POLYLINE
  8
0
 62
     0
 66
     1
 10
0
 20
0
 30
0.0
 70
     1
 40
0
 41
0
  0
VERTEX
  8
0
 10
9.41151
 20
23.7357
 30
0.0
 40
0
 41
0
  0
VERTEX
  8
0
 10
9.49744
 20
23.7357
 30
0.0
 40
0
 41
0
  0
VERTEX
  8
0
 10
9.49744
 20
24.0275
 30
0.0
 40
0
 41
0
  0
VERTEX
  8
0
 10
9.49744
 20
24.0383
 30
0.0
 40
0
 41
0
  0
VERTEX
  8
0
 10
9.50336
 20
24.0672
 30
0.0
 40
0
 41
0
  0
VERTEX
  8
0
 10
9.50461
 20
24.0706
 30
0.0
 40
0
 41
0
  0
VERTEX
  8
0
 10
9.50726
 20
24.079
 30
0.0
 40
0
 41
0
  0
VERTEX
  8
0
 10
9.51969
 20
24.1029
 30
0.0
 40
0
 41
0
  0
VERTEX
  8
0
 10
9.54362
 20
24.1311
 30
0.0
 40
0
 41
0
  0
VERTEX
  8
0
 10
9.57519
 20
24.1511
 30
0.0
 40
0
 41
0
  0
VERTEX
  8
0
 10
9.60394
 20
24.1586
 30
0.0
 40
0
 41
0
  0
VERTEX
  8
0
 10
9.61356
 20
24.1586
 30
0.0
 40
0
 41
0
  0
VERTEX
  8
0
 10
9.62457
 20
24.1586
 30
0.0
 40
0
 41
0
  0
VERTEX
  8
0
 10
9.65761
 20
24.1487
 30
0.0
 40
0
 41
0
  0
VERTEX
  8
0
 10
9.68913
 20
24.121
 30
0.0
 40
0
 41
0
  0
VERTEX
  8
0
 10
9.70811
 20
24.0789
 30
0.0
 40
0
 41
0
  0
VERTEX
  8
0
 10
9.71446
 20
24.0389
 30
0.0
 40
0
 41
0
  0
VERTEX
  8
0
 10
9.71446
 20
24.0256
 30
0.0
 40
0
 41
0
  0
VERTEX
  8
0
 10
9.71446
 20
23.7357
 30
0.0
 40
0
 41
0
  0
VERTEX
  8
0
 10
9.8004
 20
23.7357
 30
0.0
 40
0
 41
0
  0
VERTEX
  8
0
 10
9.8004
 20
24.0344
 30
0.0
 40
0
 41
0
  0
VERTEX
  8
0
 10
9.8004
 20
24.0456
 30
0.0
 40
0
 41
0
  0
VERTEX
  8
0
 10
9.80653
 20
24.0756
 30
0.0
 40
0
 41
0
  0
VERTEX
  8
0
 10
9.80757
 20
24.0786
 30
0.0
 40
0
 41
0
  0
VERTEX
  8
0
 10
9.81033
 20
24.0865
 30
0.0
 40
0
 41
0
  0
VERTEX
  8
0
 10
9.82303
 20
24.1092
 30
0.0
 40
0
 41
0
  0
VERTEX
  8
0
 10
9.84636
 20
24.1347
 30
0.0
 40
0
 41
0
  0
VERTEX
  8
0
 10
9.87619
 20
24.1522
 30
0.0
 40
0
 41
0
  0
VERTEX
  8
0
 10
9.90267
 20
24.1586
 30
0.0
 40
0
 41
0
  0
VERTEX
  8
0
 10
9.91151
 20
24.1586
 30
0.0
 40
0
 41
0
  0
VERTEX
  8
0
 10
9.92307
 20
24.1586
 30
0.0
 40
0
 41
0
  0
VERTEX
  8
0
 10
9.95779
 20
24.1485
 30
0.0
 40
0
 41
0
  0
VERTEX
  8
0
 10
9.9905
 20
24.119
 30
0.0
 40
0
 41
0
  0
VERTEX
  8
0
 10
10.0099
 20
24.0722
 30
0.0
 40
0
 41
0
  0
VERTEX
  8
0
 10
10.0163
 20
24.0253
 30
0.0
 40
0
 41
0
  0
VERTEX
  8
0
 10
10.0163
 20
24.0096
 30
0.0
 40
0
 41
0
  0
VERTEX
  8
0
 10
10.0163
 20
23.7357
 30
0.0
 40
0
 41
0
  0
VERTEX
  8
0
 10
10.1025
 20
23.7357
 30
0.0
 40
0
 41
0
  0
VERTEX
  8
0
 10
10.1025
 20
24.0206
 30
0.0
 40
0
 41
0
  0
VERTEX
  8
0
 10
10.1025
 20
24.035
 30
0.0
 40
0
 41
0
  0
VERTEX
  8
0
 10
10.0982
 20
24.0779
 30
0.0
 40
0
 41
0
  0
VERTEX
  8
0
 10
10.0866
 20
24.1243
 30
0.0
 40
0
 41
0
  0
VERTEX
  8
0
 10
10.069
 20
24.1608
 30
0.0
 40
0
 41
0
  0
VERTEX
  8
0
 10
10.0469
 20
24.1885
 30
0.0
 40
0
 41
0
  0
VERTEX
  8
0
 10
10.0219
 20
24.2083
 30
0.0
 40
0
 41
0
  0
VERTEX
  8
0
 10
9.99522
 20
24.2213
 30
0.0
 40
0
 41
0
  0
VERTEX
  8
0
 10
9.96858
 20
24.2283
 30
0.0
 40
0
 41
0
  0
VERTEX
  8
0
 10
9.94971
 20
24.2304
 30
0.0
 40
0
 41
0
  0
VERTEX
  8
0
 10
9.94342
 20
24.2304
 30
0.0
 40
0
 41
0
  0
VERTEX
  8
0
 10
9.92844
 20
24.2304
 30
0.0
 40
0
 41
0
  0
VERTEX
  8
0
 10
9.88357
 20
24.2218
 30
0.0
 40
0
 41
0
  0
VERTEX
  8
0
 10
9.84369
 20
24.2021
 30
0.0
 40
0
 41
0
  0
VERTEX
  8
0
 10
9.83643
 20
24.1967
 30
0.0
 40
0
 41
0
  0
VERTEX
  8
0
 10
9.83143
 20
24.1929
 30
0.0
 40
0
 41
0
  0
VERTEX
  8
0
 10
9.80761
 20
24.1696
 30
0.0
 40
0
 41
0
  0
VERTEX
  8
0
 10
9.78618
 20
24.1404
 30
0.0
 40
0
 41
0
  0
VERTEX
  8
0
 10
9.78239
 20
24.1338
 30
0.0
 40
0
 41
0
  0
VERTEX
  8
0
 10
9.78043
 20
24.1338
 30
0.0
 40
0
 41
0
  0
VERTEX
  8
0
 10
9.77658
 20
24.144
 30
0.0
 40
0
 41
0
  0
VERTEX
  8
0
 10
9.75939
 20
24.1728
 30
0.0
 40
0
 41
0
  0
VERTEX
  8
0
 10
9.72879
 20
24.2033
 30
0.0
 40
0
 41
0
  0
VERTEX
  8
0
 10
9.68972
 20
24.2233
 30
0.0
 40
0
 41
0
  0
VERTEX
  8
0
 10
9.65506
 20
24.2304
 30
0.0
 40
0
 41
0
  0
VERTEX
  8
0
 10
9.6435
 20
24.2304
 30
0.0
 40
0
 41
0
  0
VERTEX
  8
0
 10
9.63004
 20
24.2304
 30
0.0
 40
0
 41
0
  0
VERTEX
  8
0
 10
9.58985
 20
24.2231
 30
0.0
 40
0
 41
0
  0
VERTEX
  8
0
 10
9.54769
 20
24.2032
 30
0.0
 40
0
 41
0
  0
VERTEX
  8
0
 10
9.5154
 20
24.1749
 30
0.0
 40
0
 41
0
  0
VERTEX
  8
0
 10
9.49669
 20
24.1503
 30
0.0
 40
0
 41
0
  0
VERTEX
  8
0
 10
9.4916
 20
24.1415
 30
0.0
 40
0
 41
0
  0
VERTEX
  8
0
 10
9.48856
 20
24.1415
 30
0.0
 40
0
 41
0
  0
VERTEX
  8
0
 10
9.48465
 20
24.2196
 30
0.0
 40
0
 41
0
  0
VERTEX
  8
0
 10
9.40761
 20
24.2196
 30
0.0
 40
0
 41
0
  0
VERTEX
  8
0
 10
9.40836
 20
24.2096
 30
0.0
 40
0
 41
0
  0
VERTEX
  8
0
 10
9.41069
 20
24.1578
 30
0.0
 40
0
 41
0
  0
VERTEX
  8
0
 10
9.41151
 20
24.106
 30
0.0
 40
0
 41
0
  0
VERTEX
  8
0
 10
9.41151
 20
24.0886
 30
0.0
 40
0
 41
0
  0
VERTEX
  8
0
 10
9.41151
 20
23.7357
 30
0.0
 40
0
 41
0
  0
SEQEND
 8
0
  0
POLYLINE
  8
0
 62
     0
 66
     1
 10
0
 20
0
 30
0.0
 70
     1
 40
0
 41
0
  0
VERTEX
  8
0
 10
10.2835
 20
23.7246
 30
0.0
 40
0
 41
0
  0
VERTEX
  8
0
 10
10.2897
 20
23.7246
 30
0.0
 40
0
 41
0
  0
VERTEX
  8
0
 10
10.3085
 20
23.7294
 30
0.0
 40
0
 41
0
  0
VERTEX
  8
0
 10
10.3274
 20
23.7426
 30
0.0
 40
0
 41
0
  0
VERTEX
  8
0
 10
10.3394
 20
23.7626
 30
0.0
 40
0
 41
0
  0
VERTEX
  8
0
 10
10.3436
 20
23.7815
 30
0.0
 40
0
 41
0
  0
VERTEX
  8
0
 10
10.3436
 20
23.7878
 30
0.0
 40
0
 41
0
  0
VERTEX
  8
0
 10
10.3436
 20
23.7942
 30
0.0
 40
0
 41
0
  0
VERTEX
  8
0
 10
10.3393
 20
23.8132
 30
0.0
 40
0
 41
0
  0
VERTEX
  8
0
 10
10.3272
 20
23.8331
 30
0.0
 40
0
 41
0
  0
VERTEX
  8
0
 10
10.3085
 20
23.8461
 30
0.0
 40
0
 41
0
  0
VERTEX
  8
0
 10
10.2905
 20
23.8507
 30
0.0
 40
0
 41
0
  0
VERTEX
  8
0
 10
10.2846
 20
23.8507
 30
0.0
 40
0
 41
0
  0
VERTEX
  8
0
 10
10.2785
 20
23.8507
 30
0.0
 40
0
 41
0
  0
VERTEX
  8
0
 10
10.2604
 20
23.8461
 30
0.0
 40
0
 41
0
  0
VERTEX
  8
0
 10
10.2415
 20
23.8331
 30
0.0
 40
0
 41
0
  0
VERTEX
  8
0
 10
10.2291
 20
23.8132
 30
0.0
 40
0
 41
0
  0
VERTEX
  8
0
 10
10.2247
 20
23.7942
 30
0.0
 40
0
 41
0
  0
VERTEX
  8
0
 10
10.2247
 20
23.7878
 30
0.0
 40
0
 41
0
  0
VERTEX
  8
0
 10
10.2247
 20
23.7815
 30
0.0
 40
0
 41
0
  0
VERTEX
  8
0
 10
10.2289
 20
23.7626
 30
0.0
 40
0
 41
0
  0
VERTEX
  8
0
 10
10.2409
 20
23.7426
 30
0.0
 40
0
 41
0
  0
VERTEX
  8
0
 10
10.2595
 20
23.7294
 30
0.0
 40
0
 41
0
  0
VERTEX
  8
0
 10
10.2775
 20
23.7246
 30
0.0
 40
0
 41
0
  0
VERTEX
  8
0
 10
10.2835
 20
23.7246
 30
0.0
 40
0
 41
0
  0
SEQEND
 8
0
  0
POLYLINE
  8
0
 62
     0
 66
     1
 10
0
 20
0
 30
0.0
 70
     1
 40
0
 41
0
  0
VERTEX
  8
0
 10
11.1473
 20
24.0725
 30
0.0
 40
0
 41
0
  0
VERTEX
  8
0
 10
11.1473
 20
24.1326
 30
0.0
 40
0
 41
0
  0
VERTEX
  8
0
 10
10.6315
 20
24.1326
 30
0.0
 40
0
 41
0
  0
VERTEX
  8
0
 10
10.6315
 20
24.0725
 30
0.0
 40
0
 41
0
  0
VERTEX
  8
0
 10
11.1473
 20
24.0725
 30
0.0
 40
0
 41
0
  0
SEQEND
 8
0
  0
POLYLINE
  8
0
 62
     0
 66
     1
 10
0
 20
0
 30
0.0
 70
     1
 40
0
 41
0
  0
VERTEX
  8
0
 10
11.1473
 20
23.8768
 30
0.0
 40
0
 41
0
  0
VERTEX
  8
0
 10
11.1473
 20
23.9367
 30
0.0
 40
0
 41
0
  0
VERTEX
  8
0
 10
10.6315
 20
23.9367
 30
0.0
 40
0
 41
0
  0
VERTEX
  8
0
 10
10.6315
 20
23.8768
 30
0.0
 40
0
 41
0
  0
VERTEX
  8
0
 10
11.1473
 20
23.8768
 30
0.0
 40
0
 41
0
  0
SEQEND
 8
0
  0
POLYLINE
  8
0
 62
     0
 66
     1
 10
0
 20
0
 30
0.0
 70
     1
 40
0
 41
0
  0
VERTEX
  8
0
 10
11.8593
 20
23.7357
 30
0.0
 40
0
 41
0
  0
VERTEX
  8
0
 10
11.8593
 20
23.8086
 30
0.0
 40
0
 41
0
  0
VERTEX
  8
0
 10
11.5674
 20
23.8086
 30
0.0
 40
0
 41
0
  0
VERTEX
  8
0
 10
11.5674
 20
23.8108
 30
0.0
 40
0
 41
0
  0
VERTEX
  8
0
 10
11.6193
 20
23.8587
 30
0.0
 40
0
 41
0
  0
VERTEX
  8
0
 10
11.643
 20
23.8815
 30
0.0
 40
0
 41
0
  0
VERTEX
  8
0
 10
11.7121
 20
23.9521
 30
0.0
 40
0
 41
0
  0
VERTEX
  8
0
 10
11.7827
 20
24.0376
 30
0.0
 40
0
 41
0
  0
VERTEX
  8
0
 10
11.8275
 20
24.121
 30
0.0
 40
0
 41
0
  0
VERTEX
  8
0
 10
11.8433
 20
24.1858
 30
0.0
 40
0
 41
0
  0
VERTEX
  8
0
 10
11.8433
 20
24.2075
 30
0.0
 40
0
 41
0
  0
VERTEX
  8
0
 10
11.8433
 20
24.2162
 30
0.0
 40
0
 41
0
  0
VERTEX
  8
0
 10
11.8404
 20
24.2424
 30
0.0
 40
0
 41
0
  0
VERTEX
  8
0
 10
11.8319
 20
24.2763
 30
0.0
 40
0
 41
0
  0
VERTEX
  8
0
 10
11.8172
 20
24.3082
 30
0.0
 40
0
 41
0
  0
VERTEX
  8
0
 10
11.7963
 20
24.3369
 30
0.0
 40
0
 41
0
  0
VERTEX
  8
0
 10
11.7689
 20
24.3613
 30
0.0
 40
0
 41
0
  0
VERTEX
  8
0
 10
11.7345
 20
24.38
 30
0.0
 40
0
 41
0
  0
VERTEX
  8
0
 10
11.6932
 20
24.3922
 30
0.0
 40
0
 41
0
  0
VERTEX
  8
0
 10
11.6566
 20
24.3965
 30
0.0
 40
0
 41
0
  0
VERTEX
  8
0
 10
11.6445
 20
24.3965
 30
0.0
 40
0
 41
0
  0
VERTEX
  8
0
 10
11.6309
 20
24.3965
 30
0.0
 40
0
 41
0
  0
VERTEX
  8
0
 10
11.5903
 20
24.3915
 30
0.0
 40
0
 41
0
  0
VERTEX
  8
0
 10
11.5411
 20
24.3778
 30
0.0
 40
0
 41
0
  0
VERTEX
  8
0
 10
11.4976
 20
24.3569
 30
0.0
 40
0
 41
0
  0
VERTEX
  8
0
 10
11.4691
 20
24.3378
 30
0.0
 40
0
 41
0
  0
VERTEX
  8
0
 10
11.4604
 20
24.3306
 30
0.0
 40
0
 41
0
  0
VERTEX
  8
0
 10
11.4884
 20
24.2685
 30
0.0
 40
0
 41
0
  0
VERTEX
  8
0
 10
11.4946
 20
24.2736
 30
0.0
 40
0
 41
0
  0
VERTEX
  8
0
 10
11.5143
 20
24.2876
 30
0.0
 40
0
 41
0
  0
VERTEX
  8
0
 10
11.5466
 20
24.3054
 30
0.0
 40
0
 41
0
  0
VERTEX
  8
0
 10
11.5842
 20
24.3185
 30
0.0
 40
0
 41
0
  0
VERTEX
  8
0
 10
11.6159
 20
24.3236
 30
0.0
 40
0
 41
0
  0
VERTEX
  8
0
 10
11.6265
 20
24.3236
 30
0.0
 40
0
 41
0
  0
VERTEX
  8
0
 10
11.6417
 20
24.3236
 30
0.0
 40
0
 41
0
  0
VERTEX
  8
0
 10
11.6875
 20
24.3131
 30
0.0
 40
0
 41
0
  0
VERTEX
  8
0
 10
11.7273
 20
24.2849
 30
0.0
 40
0
 41
0
  0
VERTEX
  8
0
 10
11.7489
 20
24.2443
 30
0.0
 40
0
 41
0
  0
VERTEX
  8
0
 10
11.7554
 20
24.2086
 30
0.0
 40
0
 41
0
  0
VERTEX
  8
0
 10
11.7554
 20
24.1967
 30
0.0
 40
0
 41
0
  0
VERTEX
  8
0
 10
11.7552
 20
24.1786
 30
0.0
 40
0
 41
0
  0
VERTEX
  8
0
 10
11.7405
 20
24.1243
 30
0.0
 40
0
 41
0
  0
VERTEX
  8
0
 10
11.6962
 20
24.049
 30
0.0
 40
0
 41
0
  0
VERTEX
  8
0
 10
11.6211
 20
23.9625
 30
0.0
 40
0
 41
0
  0
VERTEX
  8
0
 10
11.5408
 20
23.8826
 30
0.0
 40
0
 41
0
  0
VERTEX
  8
0
 10
11.5134
 20
23.8565
 30
0.0
 40
0
 41
0
  0
VERTEX
  8
0
 10
11.4444
 20
23.7897
 30
0.0
 40
0
 41
0
  0
VERTEX
  8
0
 10
11.4444
 20
23.7357
 30
0.0
 40
0
 41
0
  0
VERTEX
  8
0
 10
11.8593
 20
23.7357
 30
0.0
 40
0
 41
0
  0
SEQEND
 8
0
  0
POLYLINE
  8
0
 62
     0
 66
     1
 10
0
 20
0
 30
0.0
 70
     1
 40
0
 41
0
  0
VERTEX
  8
0
 10
12.0084
 20
23.7257
 30
0.0
 40
0
 41
0
  0
VERTEX
  8
0
 10
12.0136
 20
23.7254
 30
0.0
 40
0
 41
0
  0
VERTEX
  8
0
 10
12.0448
 20
23.726
 30
0.0
 40
0
 41
0
  0
VERTEX
  8
0
 10
12.0813
 20
23.7294
 30
0.0
 40
0
 41
0
  0
VERTEX
  8
0
 10
12.0893
 20
23.7307
 30
0.0
 40
0
 41
0
  0
VERTEX
  8
0
 10
12.1024
 20
23.7322
 30
0.0
 40
0
 41
0
  0
VERTEX
  8
0
 10
12.1414
 20
23.7408
 30
0.0
 40
0
 41
0
  0
VERTEX
  8
0
 10
12.1913
 20
23.7589
 30
0.0
 40
0
 41
0
  0
VERTEX
  8
0
 10
12.2376
 20
23.7846
 30
0.0
 40
0
 41
0
  0
VERTEX
  8
0
 10
12.269
 20
23.8086
 30
0.0
 40
0
 41
0
  0
VERTEX
  8
0
 10
12.2783
 20
23.8178
 30
0.0
 40
0
 41
0
  0
VERTEX
  8
0
 10
12.2908
 20
23.8297
 30
0.0
 40
0
 41
0
  0
VERTEX
  8
0
 10
12.3228
 20
23.8714
 30
0.0
 40
0
 41
0
  0
VERTEX
  8
0
 10
12.3583
 20
23.9397
 30
0.0
 40
0
 41
0
  0
VERTEX
  8
0
 10
12.3818
 20
24.0233
 30
0.0
 40
0
 41
0
  0
VERTEX
  8
0
 10
12.3903
 20
24.0978
 30
0.0
 40
0
 41
0
  0
VERTEX
  8
0
 10
12.3903
 20
24.1226
 30
0.0
 40
0
 41
0
  0
VERTEX
  8
0
 10
12.3903
 20
24.1508
 30
0.0
 40
0
 41
0
  0
VERTEX
  8
0
 10
12.3754
 20
24.2354
 30
0.0
 40
0
 41
0
  0
VERTEX
  8
0
 10
12.3327
 20
24.3218
 30
0.0
 40
0
 41
0
  0
VERTEX
  8
0
 10
12.265
 20
24.3771
 30
0.0
 40
0
 41
0
  0
VERTEX
  8
0
 10
12.1978
 20
24.3965
 30
0.0
 40
0
 41
0
  0
VERTEX
  8
0
 10
12.1755
 20
24.3965
 30
0.0
 40
0
 41
0
  0
VERTEX
  8
0
 10
12.1527
 20
24.3965
 30
0.0
 40
0
 41
0
  0
VERTEX
  8
0
 10
12.0846
 20
24.3778
 30
0.0
 40
0
 41
0
  0
VERTEX
  8
0
 10
12.0145
 20
24.3272
 30
0.0
 40
0
 41
0
  0
VERTEX
  8
0
 10
11.9694
 20
24.2536
 30
0.0
 40
0
 41
0
  0
VERTEX
  8
0
 10
11.9534
 20
24.1876
 30
0.0
 40
0
 41
0
  0
VERTEX
  8
0
 10
11.9534
 20
24.1656
 30
0.0
 40
0
 41
0
  0
VERTEX
  8
0
 10
11.9534
 20
24.1556
 30
0.0
 40
0
 41
0
  0
VERTEX
  8
0
 10
11.9569
 20
24.1253
 30
0.0
 40
0
 41
0
  0
VERTEX
  8
0
 10
11.967
 20
24.0878
 30
0.0
 40
0
 41
0
  0
VERTEX
  8
0
 10
11.9833
 20
24.0539
 30
0.0
 40
0
 41
0
  0
VERTEX
  8
0
 10
12.0055
 20
24.0246
 30
0.0
 40
0
 41
0
  0
VERTEX
  8
0
 10
12.0332
 20
24.0003
 30
0.0
 40
0
 41
0
  0
VERTEX
  8
0
 10
12.0659
 20
23.9821
 30
0.0
 40
0
 41
0
  0
VERTEX
  8
0
 10
12.1035
 20
23.9706
 30
0.0
 40
0
 41
0
  0
VERTEX
  8
0
 10
12.1348
 20
23.9665
 30
0.0
 40
0
 41
0
  0
VERTEX
  8
0
 10
12.1453
 20
23.9665
 30
0.0
 40
0
 41
0
  0
VERTEX
  8
0
 10
12.1568
 20
23.9665
 30
0.0
 40
0
 41
0
  0
VERTEX
  8
0
 10
12.1916
 20
23.9714
 30
0.0
 40
0
 41
0
  0
VERTEX
  8
0
 10
12.2327
 20
23.9851
 30
0.0
 40
0
 41
0
  0
VERTEX
  8
0
 10
12.2683
 20
24.0072
 30
0.0
 40
0
 41
0
  0
VERTEX
  8
0
 10
12.2917
 20
24.0286
 30
0.0
 40
0
 41
0
  0
VERTEX
  8
0
 10
12.2983
 20
24.0367
 30
0.0
 40
0
 41
0
  0
VERTEX
  8
0
 10
12.3013
 20
24.0367
 30
0.0
 40
0
 41
0
  0
VERTEX
  8
0
 10
12.2992
 20
24.0231
 30
0.0
 40
0
 41
0
  0
VERTEX
  8
0
 10
12.2889
 20
23.9826
 30
0.0
 40
0
 41
0
  0
VERTEX
  8
0
 10
12.27
 20
23.9358
 30
0.0
 40
0
 41
0
  0
VERTEX
  8
0
 10
12.2452
 20
23.8964
 30
0.0
 40
0
 41
0
  0
VERTEX
  8
0
 10
12.2235
 20
23.8711
 30
0.0
 40
0
 41
0
  0
VERTEX
  8
0
 10
12.2154
 20
23.8637
 30
0.0
 40
0
 41
0
  0
VERTEX
  8
0
 10
12.2061
 20
23.8549
 30
0.0
 40
0
 41
0
  0
VERTEX
  8
0
 10
12.1526
 20
23.8217
 30
0.0
 40
0
 41
0
  0
VERTEX
  8
0
 10
12.0921
 20
23.8024
 30
0.0
 40
0
 41
0
  0
VERTEX
  8
0
 10
12.0793
 20
23.8006
 30
0.0
 40
0
 41
0
  0
VERTEX
  8
0
 10
12.0718
 20
23.7999
 30
0.0
 40
0
 41
0
  0
VERTEX
  8
0
 10
12.0398
 20
23.7974
 30
0.0
 40
0
 41
0
  0
VERTEX
  8
0
 10
12.0131
 20
23.7972
 30
0.0
 40
0
 41
0
  0
VERTEX
  8
0
 10
12.0084
 20
23.7978
 30
0.0
 40
0
 41
0
  0
VERTEX
  8
0
 10
12.0084
 20
23.7257
 30
0.0
 40
0
 41
0
  0
SEQEND
 8
0
  0
POLYLINE
  8
0
 62
     0
 66
     1
 10
0
 20
0
 30
0.0
 70
     1
 40
0
 41
0
  0
VERTEX
  8
0
 10
12.1683
 20
24.3294
 30
0.0
 40
0
 41
0
  0
VERTEX
  8
0
 10
12.1832
 20
24.3294
 30
0.0
 40
0
 41
0
  0
VERTEX
  8
0
 10
12.2279
 20
24.3144
 30
0.0
 40
0
 41
0
  0
VERTEX
  8
0
 10
12.2693
 20
24.2732
 30
0.0
 40
0
 41
0
  0
VERTEX
  8
0
 10
12.2935
 20
24.2111
 30
0.0
 40
0
 41
0
  0
VERTEX
  8
0
 10
12.3013
 20
24.1531
 30
0.0
 40
0
 41
0
  0
VERTEX
  8
0
 10
12.3013
 20
24.1338
 30
0.0
 40
0
 41
0
  0
VERTEX
  8
0
 10
12.3013
 20
24.1257
 30
0.0
 40
0
 41
0
  0
VERTEX
  8
0
 10
12.2945
 20
24.1036
 30
0.0
 40
0
 41
0
  0
VERTEX
  8
0
 10
12.2933
 20
24.1015
 30
0.0
 40
0
 41
0
  0
VERTEX
  8
0
 10
12.289
 20
24.0943
 30
0.0
 40
0
 41
0
  0
VERTEX
  8
0
 10
12.2719
 20
24.0744
 30
0.0
 40
0
 41
0
  0
VERTEX
  8
0
 10
12.2428
 20
24.0529
 30
0.0
 40
0
 41
0
  0
VERTEX
  8
0
 10
12.207
 20
24.0388
 30
0.0
 40
0
 41
0
  0
VERTEX
  8
0
 10
12.1758
 20
24.0336
 30
0.0
 40
0
 41
0
  0
VERTEX
  8
0
 10
12.1655
 20
24.0336
 30
0.0
 40
0
 41
0
  0
VERTEX
  8
0
 10
12.1525
 20
24.0336
 30
0.0
 40
0
 41
0
  0
VERTEX
  8
0
 10
12.1138
 20
24.0439
 30
0.0
 40
0
 41
0
  0
VERTEX
  8
0
 10
12.0744
 20
24.0722
 30
0.0
 40
0
 41
0
  0
VERTEX
  8
0
 10
12.0493
 20
24.1158
 30
0.0
 40
0
 41
0
  0
VERTEX
  8
0
 10
12.0405
 20
24.1578
 30
0.0
 40
0
 41
0
  0
VERTEX
  8
0
 10
12.0405
 20
24.1717
 30
0.0
 40
0
 41
0
  0
VERTEX
  8
0
 10
12.0405
 20
24.1875
 30
0.0
 40
0
 41
0
  0
VERTEX
  8
0
 10
12.0499
 20
24.2351
 30
0.0
 40
0
 41
0
  0
VERTEX
  8
0
 10
12.0763
 20
24.285
 30
0.0
 40
0
 41
0
  0
VERTEX
  8
0
 10
12.1167
 20
24.3178
 30
0.0
 40
0
 41
0
  0
VERTEX
  8
0
 10
12.1554
 20
24.3294
 30
0.0
 40
0
 41
0
  0
VERTEX
  8
0
 10
12.1683
 20
24.3294
 30
0.0
 40
0
 41
0
  0
SEQEND
 8
0
  0
POLYLINE
  8
0
 62
     0
 66
     1
 10
0
 20
0
 30
0.0
 70
     1
 40
0
 41
0
  0
VERTEX
  8
0
 10
12.5363
 20
23.7246
 30
0.0
 40
0
 41
0
  0
VERTEX
  8
0
 10
12.5425
 20
23.7246
 30
0.0
 40
0
 41
0
  0
VERTEX
  8
0
 10
12.5613
 20
23.7294
 30
0.0
 40
0
 41
0
  0
VERTEX
  8
0
 10
12.5802
 20
23.7426
 30
0.0
 40
0
 41
0
  0
VERTEX
  8
0
 10
12.5922
 20
23.7626
 30
0.0
 40
0
 41
0
  0
VERTEX
  8
0
 10
12.5964
 20
23.7815
 30
0.0
 40
0
 41
0
  0
VERTEX
  8
0
 10
12.5964
 20
23.7878
 30
0.0
 40
0
 41
0
  0
VERTEX
  8
0
 10
12.5964
 20
23.7942
 30
0.0
 40
0
 41
0
  0
VERTEX
  8
0
 10
12.5921
 20
23.8132
 30
0.0
 40
0
 41
0
  0
VERTEX
  8
0
 10
12.58
 20
23.8331
 30
0.0
 40
0
 41
0
  0
VERTEX
  8
0
 10
12.5613
 20
23.8461
 30
0.0
 40
0
 41
0
  0
VERTEX
  8
0
 10
12.5433
 20
23.8507
 30
0.0
 40
0
 41
0
  0
VERTEX
  8
0
 10
12.5374
 20
23.8507
 30
0.0
 40
0
 41
0
  0
VERTEX
  8
0
 10
12.5313
 20
23.8507
 30
0.0
 40
0
 41
0
  0
VERTEX
  8
0
 10
12.5132
 20
23.8461
 30
0.0
 40
0
 41
0
  0
VERTEX
  8
0
 10
12.4943
 20
23.8331
 30
0.0
 40
0
 41
0
  0
VERTEX
  8
0
 10
12.4819
 20
23.8132
 30
0.0
 40
0
 41
0
  0
VERTEX
  8
0
 10
12.4775
 20
23.7942
 30
0.0
 40
0
 41
0
  0
VERTEX
  8
0
 10
12.4775
 20
23.7878
 30
0.0
 40
0
 41
0
  0
VERTEX
  8
0
 10
12.4775
 20
23.7815
 30
0.0
 40
0
 41
0
  0
VERTEX
  8
0
 10
12.4817
 20
23.7626
 30
0.0
 40
0
 41
0
  0
VERTEX
  8
0
 10
12.4938
 20
23.7426
 30
0.0
 40
0
 41
0
  0
VERTEX
  8
0
 10
12.5123
 20
23.7294
 30
0.0
 40
0
 41
0
  0
VERTEX
  8
0
 10
12.5303
 20
23.7246
 30
0.0
 40
0
 41
0
  0
VERTEX
  8
0
 10
12.5363
 20
23.7246
 30
0.0
 40
0
 41
0
  0
SEQEND
 8
0
  0
POLYLINE
  8
0
 62
     0
 66
     1
 10
0
 20
0
 30
0.0
 70
     1
 40
0
 41
0
  0
VERTEX
  8
0
 10
12.6895
 20
24.3854
 30
0.0
 40
0
 41
0
  0
VERTEX
  8
0
 10
12.6895
 20
24.3125
 30
0.0
 40
0
 41
0
  0
VERTEX
  8
0
 10
13.0074
 20
24.3125
 30
0.0
 40
0
 41
0
  0
VERTEX
  8
0
 10
13.0074
 20
24.3106
 30
0.0
 40
0
 41
0
  0
VERTEX
  8
0
 10
12.7253
 20
23.7357
 30
0.0
 40
0
 41
0
  0
VERTEX
  8
0
 10
12.8164
 20
23.7357
 30
0.0
 40
0
 41
0
  0
VERTEX
  8
0
 10
13.0992
 20
24.3275
 30
0.0
 40
0
 41
0
  0
VERTEX
  8
0
 10
13.0992
 20
24.3854
 30
0.0
 40
0
 41
0
  0
VERTEX
  8
0
 10
12.6895
 20
24.3854
 30
0.0
 40
0
 41
0
  0
SEQEND
 8
0
  0
POLYLINE
  8
0
 62
     0
 66
     1
 10
0
 20
0
 30
0.0
 70
     1
 40
0
 41
0
  0
VERTEX
  8
0
 10
13.5783
 20
24.3854
 30
0.0
 40
0
 41
0
  0
VERTEX
  8
0
 10
13.2673
 20
24.3854
 30
0.0
 40
0
 41
0
  0
VERTEX
  8
0
 10
13.2254
 20
24.0736
 30
0.0
 40
0
 41
0
  0
VERTEX
  8
0
 10
13.2314
 20
24.0743
 30
0.0
 40
0
 41
0
  0
VERTEX
  8
0
 10
13.2655
 20
24.0782
 30
0.0
 40
0
 41
0
  0
VERTEX
  8
0
 10
13.3028
 20
24.0806
 30
0.0
 40
0
 41
0
  0
VERTEX
  8
0
 10
13.3153
 20
24.0806
 30
0.0
 40
0
 41
0
  0
VERTEX
  8
0
 10
13.3362
 20
24.0806
 30
0.0
 40
0
 41
0
  0
VERTEX
  8
0
 10
13.3991
 20
24.0699
 30
0.0
 40
0
 41
0
  0
VERTEX
  8
0
 10
13.4571
 20
24.0401
 30
0.0
 40
0
 41
0
  0
VERTEX
  8
0
 10
13.4909
 20
23.9946
 30
0.0
 40
0
 41
0
  0
VERTEX
  8
0
 10
13.5021
 20
23.9511
 30
0.0
 40
0
 41
0
  0
VERTEX
  8
0
 10
13.5023
 20
23.9367
 30
0.0
 40
0
 41
0
  0
VERTEX
  8
0
 10
13.5023
 20
23.9219
 30
0.0
 40
0
 41
0
  0
VERTEX
  8
0
 10
13.4899
 20
23.8779
 30
0.0
 40
0
 41
0
  0
VERTEX
  8
0
 10
13.4564
 20
23.8335
 30
0.0
 40
0
 41
0
  0
VERTEX
  8
0
 10
13.4074
 20
23.8054
 30
0.0
 40
0
 41
0
  0
VERTEX
  8
0
 10
13.363
 20
23.7956
 30
0.0
 40
0
 41
0
  0
VERTEX
  8
0
 10
13.3482
 20
23.7956
 30
0.0
 40
0
 41
0
  0
VERTEX
  8
0
 10
13.3375
 20
23.7956
 30
0.0
 40
0
 41
0
  0
VERTEX
  8
0
 10
13.3054
 20
23.799
 30
0.0
 40
0
 41
0
  0
VERTEX
  8
0
 10
13.2668
 20
23.8076
 30
0.0
 40
0
 41
0
  0
VERTEX
  8
0
 10
13.2341
 20
23.8193
 30
0.0
 40
0
 41
0
  0
VERTEX
  8
0
 10
13.2153
 20
23.8282
 30
0.0
 40
0
 41
0
  0
VERTEX
  8
0
 10
13.2094
 20
23.8317
 30
0.0
 40
0
 41
0
  0
VERTEX
  8
0
 10
13.1872
 20
23.7647
 30
0.0
 40
0
 41
0
  0
VERTEX
  8
0
 10
13.1939
 20
23.7604
 30
0.0
 40
0
 41
0
  0
VERTEX
  8
0
 10
13.2157
 20
23.75
 30
0.0
 40
0
 41
0
  0
VERTEX
  8
0
 10
13.2533
 20
23.7371
 30
0.0
 40
0
 41
0
  0
VERTEX
  8
0
 10
13.2984
 20
23.7281
 30
0.0
 40
0
 41
0
  0
VERTEX
  8
0
 10
13.3366
 20
23.7246
 30
0.0
 40
0
 41
0
  0
VERTEX
  8
0
 10
13.3493
 20
23.7246
 30
0.0
 40
0
 41
0
  0
VERTEX
  8
0
 10
13.3736
 20
23.7246
 30
0.0
 40
0
 41
0
  0
VERTEX
  8
0
 10
13.4466
 20
23.7415
 30
0.0
 40
0
 41
0
  0
VERTEX
  8
0
 10
13.5231
 20
23.7881
 30
0.0
 40
0
 41
0
  0
VERTEX
  8
0
 10
13.5733
 20
23.8583
 30
0.0
 40
0
 41
0
  0
VERTEX
  8
0
 10
13.5913
 20
23.9246
 30
0.0
 40
0
 41
0
  0
VERTEX
  8
0
 10
13.5913
 20
23.9467
 30
0.0
 40
0
 41
0
  0
VERTEX
  8
0
 10
13.5913
 20
23.9608
 30
0.0
 40
0
 41
0
  0
VERTEX
  8
0
 10
13.5839
 20
24.0032
 30
0.0
 40
0
 41
0
  0
VERTEX
  8
0
 10
13.5639
 20
24.05
 30
0.0
 40
0
 41
0
  0
VERTEX
  8
0
 10
13.5342
 20
24.0868
 30
0.0
 40
0
 41
0
  0
VERTEX
  8
0
 10
13.5079
 20
24.1081
 30
0.0
 40
0
 41
0
  0
VERTEX
  8
0
 10
13.4982
 20
24.1135
 30
0.0
 40
0
 41
0
  0
VERTEX
  8
0
 10
13.4882
 20
24.1196
 30
0.0
 40
0
 41
0
  0
VERTEX
  8
0
 10
13.432
 20
24.1401
 30
0.0
 40
0
 41
0
  0
VERTEX
  8
0
 10
13.3767
 20
24.1486
 30
0.0
 40
0
 41
0
  0
VERTEX
  8
0
 10
13.3582
 20
24.1486
 30
0.0
 40
0
 41
0
  0
VERTEX
  8
0
 10
13.3508
 20
24.1486
 30
0.0
 40
0
 41
0
  0
VERTEX
  8
0
 10
13.3284
 20
24.1474
 30
0.0
 40
0
 41
0
  0
VERTEX
  8
0
 10
13.309
 20
24.145
 30
0.0
 40
0
 41
0
  0
VERTEX
  8
0
 10
13.3053
 20
24.1446
 30
0.0
 40
0
 41
0
  0
VERTEX
  8
0
 10
13.3302
 20
24.3117
 30
0.0
 40
0
 41
0
  0
VERTEX
  8
0
 10
13.5783
 20
24.3117
 30
0.0
 40
0
 41
0
  0
VERTEX
  8
0
 10
13.5783
 20
24.3854
 30
0.0
 40
0
 41
0
  0
SEQEND
 8
0
  0
POLYLINE
  8
0
 62
     0
 66
     1
 10
0
 20
0
 30
0.0
 70
     1
 40
0
 41
0
  0
VERTEX
  8
0
 10
13.7512
 20
24.4115
 30
0.0
 40
0
 41
0
  0
VERTEX
  8
0
 10
13.7485
 20
24.3935
 30
0.0
 40
0
 41
0
  0
VERTEX
  8
0
 10
13.7255
 20
24.2892
 30
0.0
 40
0
 41
0
  0
VERTEX
  8
0
 10
13.6976
 20
24.1914
 30
0.0
 40
0
 41
0
  0
VERTEX
  8
0
 10
13.6924
 20
24.1767
 30
0.0
 40
0
 41
0
  0
VERTEX
  8
0
 10
13.7484
 20
24.1836
 30
0.0
 40
0
 41
0
  0
VERTEX
  8
0
 10
13.7547
 20
24.1944
 30
0.0
 40
0
 41
0
  0
VERTEX
  8
0
 10
13.771
 20
24.2282
 30
0.0
 40
0
 41
0
  0
VERTEX
  8
0
 10
13.7963
 20
24.2879
 30
0.0
 40
0
 41
0
  0
VERTEX
  8
0
 10
13.8208
 20
24.3546
 30
0.0
 40
0
 41
0
  0
VERTEX
  8
0
 10
13.8367
 20
24.404
 30
0.0
 40
0
 41
0
  0
VERTEX
  8
0
 10
13.8413
 20
24.4206
 30
0.0
 40
0
 41
0
  0
VERTEX
  8
0
 10
13.7512
 20
24.4115
 30
0.0
 40
0
 41
0
  0
SEQEND
 8
0
  0
POLYLINE
  8
0
 62
     0
 66
     1
 10
0
 20
0
 30
0.0
 70
     1
 40
0
 41
0
  0
VERTEX
  8
0
 10
13.8992
 20
24.4115
 30
0.0
 40
0
 41
0
  0
VERTEX
  8
0
 10
13.8965
 20
24.3935
 30
0.0
 40
0
 41
0
  0
VERTEX
  8
0
 10
13.8739
 20
24.2892
 30
0.0
 40
0
 41
0
  0
VERTEX
  8
0
 10
13.8457
 20
24.1914
 30
0.0
 40
0
 41
0
  0
VERTEX
  8
0
 10
13.8402
 20
24.1767
 30
0.0
 40
0
 41
0
  0
VERTEX
  8
0
 10
13.8961
 20
24.1836
 30
0.0
 40
0
 41
0
  0
VERTEX
  8
0
 10
13.9025
 20
24.1944
 30
0.0
 40
0
 41
0
  0
VERTEX
  8
0
 10
13.9189
 20
24.2282
 30
0.0
 40
0
 41
0
  0
VERTEX
  8
0
 10
13.9442
 20
24.2879
 30
0.0
 40
0
 41
0
  0
VERTEX
  8
0
 10
13.9688
 20
24.3546
 30
0.0
 40
0
 41
0
  0
VERTEX
  8
0
 10
13.9847
 20
24.404
 30
0.0
 40
0
 41
0
  0
VERTEX
  8
0
 10
13.9893
 20
24.4206
 30
0.0
 40
0
 41
0
  0
VERTEX
  8
0
 10
13.8992
 20
24.4115
 30
0.0
 40
0
 41
0
  0
SEQEND
 8
0
  0
POLYLINE
  8
0
 62
     0
 66
     1
 10
0
 20
0
 30
0.0
 70
     1
 40
0
 41
0
  0
VERTEX
  8
0
 10
14.1543
 20
24.2196
 30
0.0
 40
0
 41
0
  0
VERTEX
  8
0
 10
14.3181
 20
23.9826
 30
0.0
 40
0
 41
0
  0
VERTEX
  8
0
 10
14.1463
 20
23.7357
 30
0.0
 40
0
 41
0
  0
VERTEX
  8
0
 10
14.2432
 20
23.7357
 30
0.0
 40
0
 41
0
  0
VERTEX
  8
0
 10
14.3131
 20
23.8446
 30
0.0
 40
0
 41
0
  0
VERTEX
  8
0
 10
14.3176
 20
23.8519
 30
0.0
 40
0
 41
0
  0
VERTEX
  8
0
 10
14.3601
 20
23.9214
 30
0.0
 40
0
 41
0
  0
VERTEX
  8
0
 10
14.364
 20
23.9286
 30
0.0
 40
0
 41
0
  0
VERTEX
  8
0
 10
14.3661
 20
23.9286
 30
0.0
 40
0
 41
0
  0
VERTEX
  8
0
 10
14.3703
 20
23.9214
 30
0.0
 40
0
 41
0
  0
VERTEX
  8
0
 10
14.4133
 20
23.8517
 30
0.0
 40
0
 41
0
  0
VERTEX
  8
0
 10
14.4182
 20
23.8446
 30
0.0
 40
0
 41
0
  0
VERTEX
  8
0
 10
14.489
 20
23.7357
 30
0.0
 40
0
 41
0
  0
VERTEX
  8
0
 10
14.5892
 20
23.7357
 30
0.0
 40
0
 41
0
  0
VERTEX
  8
0
 10
14.4192
 20
23.9857
 30
0.0
 40
0
 41
0
  0
VERTEX
  8
0
 10
14.5842
 20
24.2196
 30
0.0
 40
0
 41
0
  0
VERTEX
  8
0
 10
14.489
 20
24.2196
 30
0.0
 40
0
 41
0
  0
VERTEX
  8
0
 10
14.4211
 20
24.1165
 30
0.0
 40
0
 41
0
  0
VERTEX
  8
0
 10
14.4172
 20
24.11
 30
0.0
 40
0
 41
0
  0
VERTEX
  8
0
 10
14.3772
 20
24.0439
 30
0.0
 40
0
 41
0
  0
VERTEX
  8
0
 10
14.3732
 20
24.0367
 30
0.0
 40
0
 41
0
  0
VERTEX
  8
0
 10
14.3701
 20
24.0367
 30
0.0
 40
0
 41
0
  0
VERTEX
  8
0
 10
14.3661
 20
24.0435
 30
0.0
 40
0
 41
0
  0
VERTEX
  8
0
 10
14.3257
 20
24.1089
 30
0.0
 40
0
 41
0
  0
VERTEX
  8
0
 10
14.3211
 20
24.1157
 30
0.0
 40
0
 41
0
  0
VERTEX
  8
0
 10
14.2521
 20
24.2196
 30
0.0
 40
0
 41
0
  0
VERTEX
  8
0
 10
14.1543
 20
24.2196
 30
0.0
 40
0
 41
0
  0
SEQEND
 8
0
  0
POLYLINE
  8
0
 62
     0
 66
     1
 10
0
 20
0
 30
0.0
 70
     1
 40
0
 41
0
  0
VERTEX
  8
0
 10
15.049
 20
23.7357
 30
0.0
 40
0
 41
0
  0
VERTEX
  8
0
 10
15.1342
 20
23.7357
 30
0.0
 40
0
 41
0
  0
VERTEX
  8
0
 10
15.1342
 20
24.3854
 30
0.0
 40
0
 41
0
  0
VERTEX
  8
0
 10
15.059
 20
24.3854
 30
0.0
 40
0
 41
0
  0
VERTEX
  8
0
 10
14.9171
 20
24.3094
 30
0.0
 40
0
 41
0
  0
VERTEX
  8
0
 10
14.934
 20
24.2426
 30
0.0
 40
0
 41
0
  0
VERTEX
  8
0
 10
15.0471
 20
24.3036
 30
0.0
 40
0
 41
0
  0
VERTEX
  8
0
 10
15.049
 20
24.3036
 30
0.0
 40
0
 41
0
  0
VERTEX
  8
0
 10
15.049
 20
23.7357
 30
0.0
 40
0
 41
0
  0
SEQEND
 8
0
  0
POLYLINE
  8
0
 62
     0
 66
     1
 10
0
 20
0
 30
0.0
 70
     1
 40
0
 41
0
  0
VERTEX
  8
0
 10
15.5811
 20
23.7246
 30
0.0
 40
0
 41
0
  0
VERTEX
  8
0
 10
15.5924
 20
23.7246
 30
0.0
 40
0
 41
0
  0
VERTEX
  8
0
 10
15.6261
 20
23.7282
 30
0.0
 40
0
 41
0
  0
VERTEX
  8
0
 10
15.6679
 20
23.7383
 30
0.0
 40
0
 41
0
  0
VERTEX
  8
0
 10
15.7054
 20
23.7546
 30
0.0
 40
0
 41
0
  0
VERTEX
  8
0
 10
15.7381
 20
23.7768
 30
0.0
 40
0
 41
0
  0
VERTEX
  8
0
 10
15.7647
 20
23.8042
 30
0.0
 40
0
 41
0
  0
VERTEX
  8
0
 10
15.7849
 20
23.8364
 30
0.0
 40
0
 41
0
  0
VERTEX
  8
0
 10
15.7976
 20
23.8731
 30
0.0
 40
0
 41
0
  0
VERTEX
  8
0
 10
15.8021
 20
23.9035
 30
0.0
 40
0
 41
0
  0
VERTEX
  8
0
 10
15.8021
 20
23.9136
 30
0.0
 40
0
 41
0
  0
VERTEX
  8
0
 10
15.8021
 20
23.9274
 30
0.0
 40
0
 41
0
  0
VERTEX
  8
0
 10
15.7929
 20
23.9688
 30
0.0
 40
0
 41
0
  0
VERTEX
  8
0
 10
15.7668
 20
24.0153
 30
0.0
 40
0
 41
0
  0
VERTEX
  8
0
 10
15.7256
 20
24.0531
 30
0.0
 40
0
 41
0
  0
VERTEX
  8
0
 10
15.6851
 20
24.076
 30
0.0
 40
0
 41
0
  0
VERTEX
  8
0
 10
15.671
 20
24.0817
 30
0.0
 40
0
 41
0
  0
VERTEX
  8
0
 10
15.671
 20
24.0846
 30
0.0
 40
0
 41
0
  0
VERTEX
  8
0
 10
15.6843
 20
24.091
 30
0.0
 40
0
 41
0
  0
VERTEX
  8
0
 10
15.7214
 20
24.1167
 30
0.0
 40
0
 41
0
  0
VERTEX
  8
0
 10
15.7544
 20
24.1543
 30
0.0
 40
0
 41
0
  0
VERTEX
  8
0
 10
15.7725
 20
24.195
 30
0.0
 40
0
 41
0
  0
VERTEX
  8
0
 10
15.7779
 20
24.2263
 30
0.0
 40
0
 41
0
  0
VERTEX
  8
0
 10
15.7779
 20
24.2365
 30
0.0
 40
0
 41
0
  0
VERTEX
  8
0
 10
15.7779
 20
24.2514
 30
0.0
 40
0
 41
0
  0
VERTEX
  8
0
 10
15.7661
 20
24.2957
 30
0.0
 40
0
 41
0
  0
VERTEX
  8
0
 10
15.7307
 20
24.3469
 30
0.0
 40
0
 41
0
  0
VERTEX
  8
0
 10
15.6717
 20
24.3829
 30
0.0
 40
0
 41
0
  0
VERTEX
  8
0
 10
15.6097
 20
24.3965
 30
0.0
 40
0
 41
0
  0
VERTEX
  8
0
 10
15.5892
 20
24.3965
 30
0.0
 40
0
 41
0
  0
VERTEX
  8
0
 10
15.5788
 20
24.3965
 30
0.0
 40
0
 41
0
  0
VERTEX
  8
0
 10
15.5476
 20
24.3933
 30
0.0
 40
0
 41
0
  0
VERTEX
  8
0
 10
15.5096
 20
24.384
 30
0.0
 40
0
 41
0
  0
VERTEX
  8
0
 10
15.4754
 20
24.369
 30
0.0
 40
0
 41
0
  0
VERTEX
  8
0
 10
15.4458
 20
24.3487
 30
0.0
 40
0
 41
0
  0
VERTEX
  8
0
 10
15.4217
 20
24.3236
 30
0.0
 40
0
 41
0
  0
VERTEX
  8
0
 10
15.4035
 20
24.294
 30
0.0
 40
0
 41
0
  0
VERTEX
  8
0
 10
15.3921
 20
24.2606
 30
0.0
 40
0
 41
0
  0
VERTEX
  8
0
 10
15.3882
 20
24.2328
 30
0.0
 40
0
 41
0
  0
VERTEX
  8
0
 10
15.3882
 20
24.2235
 30
0.0
 40
0
 41
0
  0
VERTEX
  8
0
 10
15.3882
 20
24.2132
 30
0.0
 40
0
 41
0
  0
VERTEX
  8
0
 10
15.3942
 20
24.1819
 30
0.0
 40
0
 41
0
  0
VERTEX
  8
0
 10
15.4126
 20
24.1424
 30
0.0
 40
0
 41
0
  0
VERTEX
  8
0
 10
15.4446
 20
24.1069
 30
0.0
 40
0
 41
0
  0
VERTEX
  8
0
 10
15.4786
 20
24.0835
 30
0.0
 40
0
 41
0
  0
VERTEX
  8
0
 10
15.4911
 20
24.0776
 30
0.0
 40
0
 41
0
  0
VERTEX
  8
0
 10
15.4921
 20
24.0747
 30
0.0
 40
0
 41
0
  0
VERTEX
  8
0
 10
15.4779
 20
24.0687
 30
0.0
 40
0
 41
0
  0
VERTEX
  8
0
 10
15.4382
 20
24.0446
 30
0.0
 40
0
 41
0
  0
VERTEX
  8
0
 10
15.3975
 20
24.0057
 30
0.0
 40
0
 41
0
  0
VERTEX
  8
0
 10
15.3719
 20
23.9576
 30
0.0
 40
0
 41
0
  0
VERTEX
  8
0
 10
15.3631
 20
23.9149
 30
0.0
 40
0
 41
0
  0
VERTEX
  8
0
 10
15.3631
 20
23.9006
 30
0.0
 40
0
 41
0
  0
VERTEX
  8
0
 10
15.3631
 20
23.8919
 30
0.0
 40
0
 41
0
  0
VERTEX
  8
0
 10
15.3668
 20
23.8658
 30
0.0
 40
0
 41
0
  0
VERTEX
  8
0
 10
15.3779
 20
23.8331
 30
0.0
 40
0
 41
0
  0
VERTEX
  8
0
 10
15.3961
 20
23.8032
 30
0.0
 40
0
 41
0
  0
VERTEX
  8
0
 10
15.421
 20
23.7769
 30
0.0
 40
0
 41
0
  0
VERTEX
  8
0
 10
15.4522
 20
23.7553
 30
0.0
 40
0
 41
0
  0
VERTEX
  8
0
 10
15.4896
 20
23.7387
 30
0.0
 40
0
 41
0
  0
VERTEX
  8
0
 10
15.5326
 20
23.7283
 30
0.0
 40
0
 41
0
  0
VERTEX
  8
0
 10
15.5689
 20
23.7246
 30
0.0
 40
0
 41
0
  0
VERTEX
  8
0
 10
15.5811
 20
23.7246
 30
0.0
 40
0
 41
0
  0
SEQEND
 8
0
  0
POLYLINE
  8
0
 62
     0
 66
     1
 10
0
 20
0
 30
0.0
 70
     1
 40
0
 41
0
  0
VERTEX
  8
0
 10
15.5831
 20
23.7886
 30
0.0
 40
0
 41
0
  0
VERTEX
  8
0
 10
15.5692
 20
23.7886
 30
0.0
 40
0
 41
0
  0
VERTEX
  8
0
 10
15.5274
 20
23.7988
 30
0.0
 40
0
 41
0
  0
VERTEX
  8
0
 10
15.4858
 20
23.8258
 30
0.0
 40
0
 41
0
  0
VERTEX
  8
0
 10
15.4604
 20
23.8654
 30
0.0
 40
0
 41
0
  0
VERTEX
  8
0
 10
15.4525
 20
23.9008
 30
0.0
 40
0
 41
0
  0
VERTEX
  8
0
 10
15.4531
 20
23.9125
 30
0.0
 40
0
 41
0
  0
VERTEX
  8
0
 10
15.4531
 20
23.9236
 30
0.0
 40
0
 41
0
  0
VERTEX
  8
0
 10
15.4607
 20
23.9567
 30
0.0
 40
0
 41
0
  0
VERTEX
  8
0
 10
15.4831
 20
23.9946
 30
0.0
 40
0
 41
0
  0
VERTEX
  8
0
 10
15.5197
 20
24.0251
 30
0.0
 40
0
 41
0
  0
VERTEX
  8
0
 10
15.5569
 20
24.0429
 30
0.0
 40
0
 41
0
  0
VERTEX
  8
0
 10
15.57
 20
24.0467
 30
0.0
 40
0
 41
0
  0
VERTEX
  8
0
 10
15.5851
 20
24.0424
 30
0.0
 40
0
 41
0
  0
VERTEX
  8
0
 10
15.6294
 20
24.025
 30
0.0
 40
0
 41
0
  0
VERTEX
  8
0
 10
15.6744
 20
23.9958
 30
0.0
 40
0
 41
0
  0
VERTEX
  8
0
 10
15.7031
 20
23.9567
 30
0.0
 40
0
 41
0
  0
VERTEX
  8
0
 10
15.7131
 20
23.9178
 30
0.0
 40
0
 41
0
  0
VERTEX
  8
0
 10
15.7131
 20
23.9047
 30
0.0
 40
0
 41
0
  0
VERTEX
  8
0
 10
15.7131
 20
23.8932
 30
0.0
 40
0
 41
0
  0
VERTEX
  8
0
 10
15.7039
 20
23.8583
 30
0.0
 40
0
 41
0
  0
VERTEX
  8
0
 10
15.6776
 20
23.8215
 30
0.0
 40
0
 41
0
  0
VERTEX
  8
0
 10
15.6367
 20
23.7974
 30
0.0
 40
0
 41
0
  0
VERTEX
  8
0
 10
15.5965
 20
23.7886
 30
0.0
 40
0
 41
0
  0
VERTEX
  8
0
 10
15.5831
 20
23.7886
 30
0.0
 40
0
 41
0
  0
SEQEND
 8
0
  0
POLYLINE
  8
0
 62
     0
 66
     1
 10
0
 20
0
 30
0.0
 70
     1
 40
0
 41
0
  0
VERTEX
  8
0
 10
15.5842
 20
24.3336
 30
0.0
 40
0
 41
0
  0
VERTEX
  8
0
 10
15.5967
 20
24.3336
 30
0.0
 40
0
 41
0
  0
VERTEX
  8
0
 10
15.6344
 20
24.3243
 30
0.0
 40
0
 41
0
  0
VERTEX
  8
0
 10
15.6686
 20
24.3001
 30
0.0
 40
0
 41
0
  0
VERTEX
  8
0
 10
15.6878
 20
24.2661
 30
0.0
 40
0
 41
0
  0
VERTEX
  8
0
 10
15.6939
 20
24.2374
 30
0.0
 40
0
 41
0
  0
VERTEX
  8
0
 10
15.6939
 20
24.2276
 30
0.0
 40
0
 41
0
  0
VERTEX
  8
0
 10
15.6939
 20
24.2175
 30
0.0
 40
0
 41
0
  0
VERTEX
  8
0
 10
15.6864
 20
24.1869
 30
0.0
 40
0
 41
0
  0
VERTEX
  8
0
 10
15.6654
 20
24.1536
 30
0.0
 40
0
 41
0
  0
VERTEX
  8
0
 10
15.634
 20
24.1278
 30
0.0
 40
0
 41
0
  0
VERTEX
  8
0
 10
15.6051
 20
24.1131
 30
0.0
 40
0
 41
0
  0
VERTEX
  8
0
 10
15.595
 20
24.1096
 30
0.0
 40
0
 41
0
  0
VERTEX
  8
0
 10
15.5819
 20
24.1131
 30
0.0
 40
0
 41
0
  0
VERTEX
  8
0
 10
15.544
 20
24.1276
 30
0.0
 40
0
 41
0
  0
VERTEX
  8
0
 10
15.505
 20
24.1526
 30
0.0
 40
0
 41
0
  0
VERTEX
  8
0
 10
15.4799
 20
24.1863
 30
0.0
 40
0
 41
0
  0
VERTEX
  8
0
 10
15.4711
 20
24.2188
 30
0.0
 40
0
 41
0
  0
VERTEX
  8
0
 10
15.4711
 20
24.2296
 30
0.0
 40
0
 41
0
  0
VERTEX
  8
0
 10
15.4711
 20
24.2396
 30
0.0
 40
0
 41
0
  0
VERTEX
  8
0
 10
15.4785
 20
24.2694
 30
0.0
 40
0
 41
0
  0
VERTEX
  8
0
 10
15.5001
 20
24.3026
 30
0.0
 40
0
 41
0
  0
VERTEX
  8
0
 10
15.5356
 20
24.3251
 30
0.0
 40
0
 41
0
  0
VERTEX
  8
0
 10
15.5719
 20
24.3336
 30
0.0
 40
0
 41
0
  0
VERTEX
  8
0
 10
15.5842
 20
24.3336
 30
0.0
 40
0
 41
0
  0
SEQEND
 8
0
  0
POLYLINE
  8
0
 62
     0
 66
     1
 10
0
 20
0
 30
0.0
 70
     1
 40
0
 41
0
  0
VERTEX
  8
0
 10
15.9319
 20
24.4115
 30
0.0
 40
0
 41
0
  0
VERTEX
  8
0
 10
15.9293
 20
24.3935
 30
0.0
 40
0
 41
0
  0
VERTEX
  8
0
 10
15.9067
 20
24.2892
 30
0.0
 40
0
 41
0
  0
VERTEX
  8
0
 10
15.8786
 20
24.1914
 30
0.0
 40
0
 41
0
  0
VERTEX
  8
0
 10
15.8732
 20
24.1767
 30
0.0
 40
0
 41
0
  0
VERTEX
  8
0
 10
15.9292
 20
24.1836
 30
0.0
 40
0
 41
0
  0
VERTEX
  8
0
 10
15.9357
 20
24.1943
 30
0.0
 40
0
 41
0
  0
VERTEX
  8
0
 10
15.9524
 20
24.2282
 30
0.0
 40
0
 41
0
  0
VERTEX
  8
0
 10
15.9779
 20
24.2879
 30
0.0
 40
0
 41
0
  0
VERTEX
  8
0
 10
16.0026
 20
24.3546
 30
0.0
 40
0
 41
0
  0
VERTEX
  8
0
 10
16.0186
 20
24.404
 30
0.0
 40
0
 41
0
  0
VERTEX
  8
0
 10
16.0231
 20
24.4206
 30
0.0
 40
0
 41
0
  0
VERTEX
  8
0
 10
15.9319
 20
24.4115
 30
0.0
 40
0
 41
0
  0
SEQEND
 8
0
  0
POLYLINE
  8
0
 62
     0
 66
     1
 10
0
 20
0
 30
0.0
 70
     1
 40
0
 41
0
  0
VERTEX
  8
0
 10
16.081
 20
24.4115
 30
0.0
 40
0
 41
0
  0
VERTEX
  8
0
 10
16.0782
 20
24.3935
 30
0.0
 40
0
 41
0
  0
VERTEX
  8
0
 10
16.0557
 20
24.2892
 30
0.0
 40
0
 41
0
  0
VERTEX
  8
0
 10
16.0276
 20
24.1914
 30
0.0
 40
0
 41
0
  0
VERTEX
  8
0
 10
16.0221
 20
24.1767
 30
0.0
 40
0
 41
0
  0
VERTEX
  8
0
 10
16.0782
 20
24.1836
 30
0.0
 40
0
 41
0
  0
VERTEX
  8
0
 10
16.0846
 20
24.1943
 30
0.0
 40
0
 41
0
  0
VERTEX
  8
0
 10
16.1014
 20
24.2282
 30
0.0
 40
0
 41
0
  0
VERTEX
  8
0
 10
16.1269
 20
24.2879
 30
0.0
 40
0
 41
0
  0
VERTEX
  8
0
 10
16.1517
 20
24.3546
 30
0.0
 40
0
 41
0
  0
VERTEX
  8
0
 10
16.1675
 20
24.404
 30
0.0
 40
0
 41
0
  0
VERTEX
  8
0
 10
16.1721
 20
24.4206
 30
0.0
 40
0
 41
0
  0
VERTEX
  8
0
 10
16.081
 20
24.4115
 30
0.0
 40
0
 41
0
  0
SEQEND
 8
0
  0
POLYLINE
  8
0
 62
     0
 66
     1
 10
0
 20
0
 30
0.0
 70
     1
 40
0
 41
0
  0
VERTEX
  8
0
 10
3.57596
 20
22.5357
 30
0.0
 40
0
 41
0
  0
VERTEX
  8
0
 10
3.66297
 20
22.5357
 30
0.0
 40
0
 41
0
  0
VERTEX
  8
0
 10
3.66297
 20
22.8276
 30
0.0
 40
0
 41
0
  0
VERTEX
  8
0
 10
3.74501
 20
22.8276
 30
0.0
 40
0
 41
0
  0
VERTEX
  8
0
 10
3.75792
 20
22.8271
 30
0.0
 40
0
 41
0
  0
VERTEX
  8
0
 10
3.79656
 20
22.8189
 30
0.0
 40
0
 41
0
  0
VERTEX
  8
0
 10
3.83453
 20
22.7958
 30
0.0
 40
0
 41
0
  0
VERTEX
  8
0
 10
3.86149
 20
22.756
 30
0.0
 40
0
 41
0
  0
VERTEX
  8
0
 10
3.87668
 20
22.7118
 30
0.0
 40
0
 41
0
  0
VERTEX
  8
0
 10
3.87999
 20
22.6967
 30
0.0
 40
0
 41
0
  0
VERTEX
  8
0
 10
3.88325
 20
22.6822
 30
0.0
 40
0
 41
0
  0
VERTEX
  8
0
 10
3.89339
 20
22.6389
 30
0.0
 40
0
 41
0
  0
VERTEX
  8
0
 10
3.90539
 20
22.5919
 30
0.0
 40
0
 41
0
  0
VERTEX
  8
0
 10
3.91585
 20
22.5571
 30
0.0
 40
0
 41
0
  0
VERTEX
  8
0
 10
3.92215
 20
22.5404
 30
0.0
 40
0
 41
0
  0
VERTEX
  8
0
 10
3.92492
 20
22.5357
 30
0.0
 40
0
 41
0
  0
VERTEX
  8
0
 10
4.01497
 20
22.5357
 30
0.0
 40
0
 41
0
  0
VERTEX
  8
0
 10
4.01156
 20
22.5421
 30
0.0
 40
0
 41
0
  0
VERTEX
  8
0
 10
4.00396
 20
22.5624
 30
0.0
 40
0
 41
0
  0
VERTEX
  8
0
 10
3.99186
 20
22.6026
 30
0.0
 40
0
 41
0
  0
VERTEX
  8
0
 10
3.97825
 20
22.6557
 30
0.0
 40
0
 41
0
  0
VERTEX
  8
0
 10
3.96664
 20
22.7044
 30
0.0
 40
0
 41
0
  0
VERTEX
  8
0
 10
3.96289
 20
22.7206
 30
0.0
 40
0
 41
0
  0
VERTEX
  8
0
 10
3.96007
 20
22.7329
 30
0.0
 40
0
 41
0
  0
VERTEX
  8
0
 10
3.94792
 20
22.7689
 30
0.0
 40
0
 41
0
  0
VERTEX
  8
0
 10
3.92681
 20
22.8082
 30
0.0
 40
0
 41
0
  0
VERTEX
  8
0
 10
3.89899
 20
22.8376
 30
0.0
 40
0
 41
0
  0
VERTEX
  8
0
 10
3.87321
 20
22.8535
 30
0.0
 40
0
 41
0
  0
VERTEX
  8
0
 10
3.86393
 20
22.8567
 30
0.0
 40
0
 41
0
  0
VERTEX
  8
0
 10
3.86393
 20
22.8597
 30
0.0
 40
0
 41
0
  0
VERTEX
  8
0
 10
3.8769
 20
22.864
 30
0.0
 40
0
 41
0
  0
VERTEX
  8
0
 10
3.91368
 20
22.8842
 30
0.0
 40
0
 41
0
  0
VERTEX
  8
0
 10
3.954
 20
22.9212
 30
0.0
 40
0
 41
0
  0
VERTEX
  8
0
 10
3.98101
 20
22.9706
 30
0.0
 40
0
 41
0
  0
VERTEX
  8
0
 10
3.99089
 20
23.0164
 30
0.0
 40
0
 41
0
  0
VERTEX
  8
0
 10
3.99089
 20
23.0315
 30
0.0
 40
0
 41
0
  0
VERTEX
  8
0
 10
3.99089
 20
23.0496
 30
0.0
 40
0
 41
0
  0
VERTEX
  8
0
 10
3.97711
 20
23.1039
 30
0.0
 40
0
 41
0
  0
VERTEX
  8
0
 10
3.9464
 20
23.1521
 30
0.0
 40
0
 41
0
  0
VERTEX
  8
0
 10
3.93793
 20
23.1596
 30
0.0
 40
0
 41
0
  0
VERTEX
  8
0
 10
3.93001
 20
23.1668
 30
0.0
 40
0
 41
0
  0
VERTEX
  8
0
 10
3.90278
 20
23.1843
 30
0.0
 40
0
 41
0
  0
VERTEX
  8
0
 10
3.85949
 20
23.2014
 30
0.0
 40
0
 41
0
  0
VERTEX
  8
0
 10
3.80664
 20
23.2112
 30
0.0
 40
0
 41
0
  0
VERTEX
  8
0
 10
3.75879
 20
23.2146
 30
0.0
 40
0
 41
0
  0
VERTEX
  8
0
 10
3.74283
 20
23.2146
 30
0.0
 40
0
 41
0
  0
VERTEX
  8
0
 10
3.72049
 20
23.2146
 30
0.0
 40
0
 41
0
  0
VERTEX
  8
0
 10
3.65343
 20
23.211
 30
0.0
 40
0
 41
0
  0
VERTEX
  8
0
 10
3.58697
 20
23.2029
 30
0.0
 40
0
 41
0
  0
VERTEX
  8
0
 10
3.57596
 20
23.2007
 30
0.0
 40
0
 41
0
  0
VERTEX
  8
0
 10
3.57596
 20
22.5357
 30
0.0
 40
0
 41
0
  0
SEQEND
 8
0
  0
POLYLINE
  8
0
 62
     0
 66
     1
 10
0
 20
0
 30
0.0
 70
     1
 40
0
 41
0
  0
VERTEX
  8
0
 10
3.66297
 20
23.1396
 30
0.0
 40
0
 41
0
  0
VERTEX
  8
0
 10
3.66644
 20
23.1407
 30
0.0
 40
0
 41
0
  0
VERTEX
  8
0
 10
3.69542
 20
23.145
 30
0.0
 40
0
 41
0
  0
VERTEX
  8
0
 10
3.73551
 20
23.1475
 30
0.0
 40
0
 41
0
  0
VERTEX
  8
0
 10
3.74892
 20
23.1475
 30
0.0
 40
0
 41
0
  0
VERTEX
  8
0
 10
3.76465
 20
23.1474
 30
0.0
 40
0
 41
0
  0
VERTEX
  8
0
 10
3.8119
 20
23.1397
 30
0.0
 40
0
 41
0
  0
VERTEX
  8
0
 10
3.86089
 20
23.1168
 30
0.0
 40
0
 41
0
  0
VERTEX
  8
0
 10
3.89258
 20
23.0779
 30
0.0
 40
0
 41
0
  0
VERTEX
  8
0
 10
3.90386
 20
23.0357
 30
0.0
 40
0
 41
0
  0
VERTEX
  8
0
 10
3.90386
 20
23.0215
 30
0.0
 40
0
 41
0
  0
VERTEX
  8
0
 10
3.90386
 20
23.0085
 30
0.0
 40
0
 41
0
  0
VERTEX
  8
0
 10
3.89318
 20
22.9692
 30
0.0
 40
0
 41
0
  0
VERTEX
  8
0
 10
3.86274
 20
22.9288
 30
0.0
 40
0
 41
0
  0
VERTEX
  8
0
 10
3.81483
 20
22.9028
 30
0.0
 40
0
 41
0
  0
VERTEX
  8
0
 10
3.76764
 20
22.8936
 30
0.0
 40
0
 41
0
  0
VERTEX
  8
0
 10
3.75196
 20
22.8936
 30
0.0
 40
0
 41
0
  0
VERTEX
  8
0
 10
3.66297
 20
22.8936
 30
0.0
 40
0
 41
0
  0
VERTEX
  8
0
 10
3.66297
 20
23.1396
 30
0.0
 40
0
 41
0
  0
SEQEND
 8
0
  0
POLYLINE
  8
0
 62
     0
 66
     1
 10
0
 20
0
 30
0.0
 70
     1
 40
0
 41
0
  0
VERTEX
  8
0
 10
4.49783
 20
22.5357
 30
0.0
 40
0
 41
0
  0
VERTEX
  8
0
 10
4.49783
 20
22.6086
 30
0.0
 40
0
 41
0
  0
VERTEX
  8
0
 10
4.20594
 20
22.6086
 30
0.0
 40
0
 41
0
  0
VERTEX
  8
0
 10
4.20594
 20
22.6108
 30
0.0
 40
0
 41
0
  0
VERTEX
  8
0
 10
4.25782
 20
22.6588
 30
0.0
 40
0
 41
0
  0
VERTEX
  8
0
 10
4.28147
 20
22.6815
 30
0.0
 40
0
 41
0
  0
VERTEX
  8
0
 10
4.35064
 20
22.7521
 30
0.0
 40
0
 41
0
  0
VERTEX
  8
0
 10
4.42122
 20
22.8376
 30
0.0
 40
0
 41
0
  0
VERTEX
  8
0
 10
4.46604
 20
22.9211
 30
0.0
 40
0
 41
0
  0
VERTEX
  8
0
 10
4.48178
 20
22.9858
 30
0.0
 40
0
 41
0
  0
VERTEX
  8
0
 10
4.48178
 20
23.0075
 30
0.0
 40
0
 41
0
  0
VERTEX
  8
0
 10
4.48178
 20
23.0163
 30
0.0
 40
0
 41
0
  0
VERTEX
  8
0
 10
4.47894
 20
23.0424
 30
0.0
 40
0
 41
0
  0
VERTEX
  8
0
 10
4.47038
 20
23.0764
 30
0.0
 40
0
 41
0
  0
VERTEX
  8
0
 10
4.45574
 20
23.1082
 30
0.0
 40
0
 41
0
  0
VERTEX
  8
0
 10
4.43485
 20
23.1369
 30
0.0
 40
0
 41
0
  0
VERTEX
  8
0
 10
4.40739
 20
23.1612
 30
0.0
 40
0
 41
0
  0
VERTEX
  8
0
 10
4.37304
 20
23.18
 30
0.0
 40
0
 41
0
  0
VERTEX
  8
0
 10
4.33171
 20
23.1922
 30
0.0
 40
0
 41
0
  0
VERTEX
  8
0
 10
4.29514
 20
23.1965
 30
0.0
 40
0
 41
0
  0
VERTEX
  8
0
 10
4.28299
 20
23.1965
 30
0.0
 40
0
 41
0
  0
VERTEX
  8
0
 10
4.26942
 20
23.1965
 30
0.0
 40
0
 41
0
  0
VERTEX
  8
0
 10
4.22885
 20
23.1915
 30
0.0
 40
0
 41
0
  0
VERTEX
  8
0
 10
4.17964
 20
23.1778
 30
0.0
 40
0
 41
0
  0
VERTEX
  8
0
 10
4.13607
 20
23.1569
 30
0.0
 40
0
 41
0
  0
VERTEX
  8
0
 10
4.10758
 20
23.1379
 30
0.0
 40
0
 41
0
  0
VERTEX
  8
0
 10
4.09896
 20
23.1306
 30
0.0
 40
0
 41
0
  0
VERTEX
  8
0
 10
4.12696
 20
23.0685
 30
0.0
 40
0
 41
0
  0
VERTEX
  8
0
 10
4.13308
 20
23.0736
 30
0.0
 40
0
 41
0
  0
VERTEX
  8
0
 10
4.15283
 20
23.0878
 30
0.0
 40
0
 41
0
  0
VERTEX
  8
0
 10
4.18506
 20
23.1054
 30
0.0
 40
0
 41
0
  0
VERTEX
  8
0
 10
4.22271
 20
23.1186
 30
0.0
 40
0
 41
0
  0
VERTEX
  8
0
 10
4.25439
 20
23.1236
 30
0.0
 40
0
 41
0
  0
VERTEX
  8
0
 10
4.26497
 20
23.1236
 30
0.0
 40
0
 41
0
  0
VERTEX
  8
0
 10
4.28022
 20
23.1236
 30
0.0
 40
0
 41
0
  0
VERTEX
  8
0
 10
4.32601
 20
23.1131
 30
0.0
 40
0
 41
0
  0
VERTEX
  8
0
 10
4.36578
 20
23.0849
 30
0.0
 40
0
 41
0
  0
VERTEX
  8
0
 10
4.38737
 20
23.0443
 30
0.0
 40
0
 41
0
  0
VERTEX
  8
0
 10
4.39388
 20
23.0086
 30
0.0
 40
0
 41
0
  0
VERTEX
  8
0
 10
4.39388
 20
22.9967
 30
0.0
 40
0
 41
0
  0
VERTEX
  8
0
 10
4.39367
 20
22.9786
 30
0.0
 40
0
 41
0
  0
VERTEX
  8
0
 10
4.37896
 20
22.9243
 30
0.0
 40
0
 41
0
  0
VERTEX
  8
0
 10
4.33475
 20
22.849
 30
0.0
 40
0
 41
0
  0
VERTEX
  8
0
 10
4.2596
 20
22.7626
 30
0.0
 40
0
 41
0
  0
VERTEX
  8
0
 10
4.17925
 20
22.6826
 30
0.0
 40
0
 41
0
  0
VERTEX
  8
0
 10
4.15192
 20
22.6565
 30
0.0
 40
0
 41
0
  0
VERTEX
  8
0
 10
4.0829
 20
22.5897
 30
0.0
 40
0
 41
0
  0
VERTEX
  8
0
 10
4.0829
 20
22.5357
 30
0.0
 40
0
 41
0
  0
VERTEX
  8
0
 10
4.49783
 20
22.5357
 30
0.0
 40
0
 41
0
  0
SEQEND
 8
0
  0
POLYLINE
  8
0
 62
     0
 66
     1
 10
0
 20
0
 30
0.0
 70
     1
 40
0
 41
0
  0
VERTEX
  8
0
 10
4.80593
 20
22.5246
 30
0.0
 40
0
 41
0
  0
VERTEX
  8
0
 10
4.81717
 20
22.5246
 30
0.0
 40
0
 41
0
  0
VERTEX
  8
0
 10
4.85097
 20
22.5282
 30
0.0
 40
0
 41
0
  0
VERTEX
  8
0
 10
4.89268
 20
22.5383
 30
0.0
 40
0
 41
0
  0
VERTEX
  8
0
 10
4.93028
 20
22.5546
 30
0.0
 40
0
 41
0
  0
VERTEX
  8
0
 10
4.96283
 20
22.5768
 30
0.0
 40
0
 41
0
  0
VERTEX
  8
0
 10
4.98958
 20
22.6042
 30
0.0
 40
0
 41
0
  0
VERTEX
  8
0
 10
5.00971
 20
22.6364
 30
0.0
 40
0
 41
0
  0
VERTEX
  8
0
 10
5.0224
 20
22.6731
 30
0.0
 40
0
 41
0
  0
VERTEX
  8
0
 10
5.02686
 20
22.7035
 30
0.0
 40
0
 41
0
  0
VERTEX
  8
0
 10
5.02686
 20
22.7136
 30
0.0
 40
0
 41
0
  0
VERTEX
  8
0
 10
5.02686
 20
22.7275
 30
0.0
 40
0
 41
0
  0
VERTEX
  8
0
 10
5.01774
 20
22.7687
 30
0.0
 40
0
 41
0
  0
VERTEX
  8
0
 10
4.99164
 20
22.8153
 30
0.0
 40
0
 41
0
  0
VERTEX
  8
0
 10
4.95036
 20
22.8531
 30
0.0
 40
0
 41
0
  0
VERTEX
  8
0
 10
4.91
 20
22.876
 30
0.0
 40
0
 41
0
  0
VERTEX
  8
0
 10
4.89578
 20
22.8817
 30
0.0
 40
0
 41
0
  0
VERTEX
  8
0
 10
4.89578
 20
22.8847
 30
0.0
 40
0
 41
0
  0
VERTEX
  8
0
 10
4.90918
 20
22.891
 30
0.0
 40
0
 41
0
  0
VERTEX
  8
0
 10
4.94624
 20
22.9167
 30
0.0
 40
0
 41
0
  0
VERTEX
  8
0
 10
4.97928
 20
22.9543
 30
0.0
 40
0
 41
0
  0
VERTEX
  8
0
 10
4.99729
 20
22.995
 30
0.0
 40
0
 41
0
  0
VERTEX
  8
0
 10
5.00276
 20
23.0263
 30
0.0
 40
0
 41
0
  0
VERTEX
  8
0
 10
5.00276
 20
23.0365
 30
0.0
 40
0
 41
0
  0
VERTEX
  8
0
 10
5.00276
 20
23.0514
 30
0.0
 40
0
 41
0
  0
VERTEX
  8
0
 10
4.99094
 20
23.0957
 30
0.0
 40
0
 41
0
  0
VERTEX
  8
0
 10
4.95557
 20
23.1469
 30
0.0
 40
0
 41
0
  0
VERTEX
  8
0
 10
4.89654
 20
23.1829
 30
0.0
 40
0
 41
0
  0
VERTEX
  8
0
 10
4.83458
 20
23.1965
 30
0.0
 40
0
 41
0
  0
VERTEX
  8
0
 10
4.81396
 20
23.1965
 30
0.0
 40
0
 41
0
  0
VERTEX
  8
0
 10
4.8036
 20
23.1965
 30
0.0
 40
0
 41
0
  0
VERTEX
  8
0
 10
4.77251
 20
23.1933
 30
0.0
 40
0
 41
0
  0
VERTEX
  8
0
 10
4.73438
 20
23.184
 30
0.0
 40
0
 41
0
  0
VERTEX
  8
0
 10
4.70019
 20
23.169
 30
0.0
 40
0
 41
0
  0
VERTEX
  8
0
 10
4.67068
 20
23.1487
 30
0.0
 40
0
 41
0
  0
VERTEX
  8
0
 10
4.64649
 20
23.1236
 30
0.0
 40
0
 41
0
  0
VERTEX
  8
0
 10
4.62831
 20
23.094
 30
0.0
 40
0
 41
0
  0
VERTEX
  8
0
 10
4.61692
 20
23.0606
 30
0.0
 40
0
 41
0
  0
VERTEX
  8
0
 10
4.61301
 20
23.0328
 30
0.0
 40
0
 41
0
  0
VERTEX
  8
0
 10
4.61301
 20
23.0236
 30
0.0
 40
0
 41
0
  0
VERTEX
  8
0
 10
4.61301
 20
23.0132
 30
0.0
 40
0
 41
0
  0
VERTEX
  8
0
 10
4.61893
 20
22.9819
 30
0.0
 40
0
 41
0
  0
VERTEX
  8
0
 10
4.63743
 20
22.9424
 30
0.0
 40
0
 41
0
  0
VERTEX
  8
0
 10
4.66938
 20
22.9069
 30
0.0
 40
0
 41
0
  0
VERTEX
  8
0
 10
4.7035
 20
22.8835
 30
0.0
 40
0
 41
0
  0
VERTEX
  8
0
 10
4.71588
 20
22.8778
 30
0.0
 40
0
 41
0
  0
VERTEX
  8
0
 10
4.71696
 20
22.8747
 30
0.0
 40
0
 41
0
  0
VERTEX
  8
0
 10
4.70281
 20
22.8688
 30
0.0
 40
0
 41
0
  0
VERTEX
  8
0
 10
4.66297
 20
22.8447
 30
0.0
 40
0
 41
0
  0
VERTEX
  8
0
 10
4.62235
 20
22.8057
 30
0.0
 40
0
 41
0
  0
VERTEX
  8
0
 10
4.59674
 20
22.7576
 30
0.0
 40
0
 41
0
  0
VERTEX
  8
0
 10
4.58783
 20
22.7149
 30
0.0
 40
0
 41
0
  0
VERTEX
  8
0
 10
4.58783
 20
22.7007
 30
0.0
 40
0
 41
0
  0
VERTEX
  8
0
 10
4.58783
 20
22.6919
 30
0.0
 40
0
 41
0
  0
VERTEX
  8
0
 10
4.59158
 20
22.6658
 30
0.0
 40
0
 41
0
  0
VERTEX
  8
0
 10
4.60275
 20
22.6331
 30
0.0
 40
0
 41
0
  0
VERTEX
  8
0
 10
4.62093
 20
22.6032
 30
0.0
 40
0
 41
0
  0
VERTEX
  8
0
 10
4.64583
 20
22.5769
 30
0.0
 40
0
 41
0
  0
VERTEX
  8
0
 10
4.67708
 20
22.5553
 30
0.0
 40
0
 41
0
  0
VERTEX
  8
0
 10
4.71442
 20
22.5388
 30
0.0
 40
0
 41
0
  0
VERTEX
  8
0
 10
4.75749
 20
22.5283
 30
0.0
 40
0
 41
0
  0
VERTEX
  8
0
 10
4.79378
 20
22.5246
 30
0.0
 40
0
 41
0
  0
VERTEX
  8
0
 10
4.80593
 20
22.5246
 30
0.0
 40
0
 41
0
  0
SEQEND
 8
0
  0
POLYLINE
  8
0
 62
     0
 66
     1
 10
0
 20
0
 30
0.0
 70
     1
 40
0
 41
0
  0
VERTEX
  8
0
 10
4.80789
 20
22.5886
 30
0.0
 40
0
 41
0
  0
VERTEX
  8
0
 10
4.79394
 20
22.5886
 30
0.0
 40
0
 41
0
  0
VERTEX
  8
0
 10
4.75217
 20
22.5987
 30
0.0
 40
0
 41
0
  0
VERTEX
  8
0
 10
4.71067
 20
22.6258
 30
0.0
 40
0
 41
0
  0
VERTEX
  8
0
 10
4.68522
 20
22.6654
 30
0.0
 40
0
 41
0
  0
VERTEX
  8
0
 10
4.67736
 20
22.7008
 30
0.0
 40
0
 41
0
  0
VERTEX
  8
0
 10
4.6779
 20
22.7125
 30
0.0
 40
0
 41
0
  0
VERTEX
  8
0
 10
4.6779
 20
22.7236
 30
0.0
 40
0
 41
0
  0
VERTEX
  8
0
 10
4.68549
 20
22.7567
 30
0.0
 40
0
 41
0
  0
VERTEX
  8
0
 10
4.7079
 20
22.7946
 30
0.0
 40
0
 41
0
  0
VERTEX
  8
0
 10
4.74451
 20
22.8251
 30
0.0
 40
0
 41
0
  0
VERTEX
  8
0
 10
4.78179
 20
22.8429
 30
0.0
 40
0
 41
0
  0
VERTEX
  8
0
 10
4.79486
 20
22.8467
 30
0.0
 40
0
 41
0
  0
VERTEX
  8
0
 10
4.81
 20
22.8424
 30
0.0
 40
0
 41
0
  0
VERTEX
  8
0
 10
4.85428
 20
22.8251
 30
0.0
 40
0
 41
0
  0
VERTEX
  8
0
 10
4.89931
 20
22.7958
 30
0.0
 40
0
 41
0
  0
VERTEX
  8
0
 10
4.92785
 20
22.7567
 30
0.0
 40
0
 41
0
  0
VERTEX
  8
0
 10
4.93788
 20
22.7178
 30
0.0
 40
0
 41
0
  0
VERTEX
  8
0
 10
4.93788
 20
22.7047
 30
0.0
 40
0
 41
0
  0
VERTEX
  8
0
 10
4.93788
 20
22.6932
 30
0.0
 40
0
 41
0
  0
VERTEX
  8
0
 10
4.92865
 20
22.6583
 30
0.0
 40
0
 41
0
  0
VERTEX
  8
0
 10
4.9025
 20
22.6215
 30
0.0
 40
0
 41
0
  0
VERTEX
  8
0
 10
4.86149
 20
22.5974
 30
0.0
 40
0
 41
0
  0
VERTEX
  8
0
 10
4.82129
 20
22.5886
 30
0.0
 40
0
 41
0
  0
VERTEX
  8
0
 10
4.80789
 20
22.5886
 30
0.0
 40
0
 41
0
  0
SEQEND
 8
0
  0
POLYLINE
  8
0
 62
     0
 66
     1
 10
0
 20
0
 30
0.0
 70
     1
 40
0
 41
0
  0
VERTEX
  8
0
 10
4.80897
 20
23.1336
 30
0.0
 40
0
 41
0
  0
VERTEX
  8
0
 10
4.82156
 20
23.1336
 30
0.0
 40
0
 41
0
  0
VERTEX
  8
0
 10
4.85932
 20
23.1243
 30
0.0
 40
0
 41
0
  0
VERTEX
  8
0
 10
4.89339
 20
23.1001
 30
0.0
 40
0
 41
0
  0
VERTEX
  8
0
 10
4.91265
 20
23.0661
 30
0.0
 40
0
 41
0
  0
VERTEX
  8
0
 10
4.91878
 20
23.0374
 30
0.0
 40
0
 41
0
  0
VERTEX
  8
0
 10
4.91878
 20
23.0276
 30
0.0
 40
0
 41
0
  0
VERTEX
  8
0
 10
4.91878
 20
23.0175
 30
0.0
 40
0
 41
0
  0
VERTEX
  8
0
 10
4.91118
 20
22.9869
 30
0.0
 40
0
 41
0
  0
VERTEX
  8
0
 10
4.89031
 20
22.9536
 30
0.0
 40
0
 41
0
  0
VERTEX
  8
0
 10
4.85889
 20
22.9278
 30
0.0
 40
0
 41
0
  0
VERTEX
  8
0
 10
4.82992
 20
22.9131
 30
0.0
 40
0
 41
0
  0
VERTEX
  8
0
 10
4.81982
 20
22.9096
 30
0.0
 40
0
 41
0
  0
VERTEX
  8
0
 10
4.80681
 20
22.9131
 30
0.0
 40
0
 41
0
  0
VERTEX
  8
0
 10
4.76882
 20
22.9276
 30
0.0
 40
0
 41
0
  0
VERTEX
  8
0
 10
4.72976
 20
22.9526
 30
0.0
 40
0
 41
0
  0
VERTEX
  8
0
 10
4.70469
 20
22.9863
 30
0.0
 40
0
 41
0
  0
VERTEX
  8
0
 10
4.6959
 20
23.0187
 30
0.0
 40
0
 41
0
  0
VERTEX
  8
0
 10
4.6959
 20
23.0296
 30
0.0
 40
0
 41
0
  0
VERTEX
  8
0
 10
4.6959
 20
23.0396
 30
0.0
 40
0
 41
0
  0
VERTEX
  8
0
 10
4.70329
 20
23.0694
 30
0.0
 40
0
 41
0
  0
VERTEX
  8
0
 10
4.72499
 20
23.1026
 30
0.0
 40
0
 41
0
  0
VERTEX
  8
0
 10
4.76042
 20
23.1253
 30
0.0
 40
0
 41
0
  0
VERTEX
  8
0
 10
4.79682
 20
23.1336
 30
0.0
 40
0
 41
0
  0
VERTEX
  8
0
 10
4.80897
 20
23.1336
 30
0.0
 40
0
 41
0
  0
SEQEND
 8
0
  0
POLYLINE
  8
0
 62
     0
 66
     1
 10
0
 20
0
 30
0.0
 70
     1
 40
0
 41
0
  0
VERTEX
  8
0
 10
5.35183
 20
23.2096
 30
0.0
 40
0
 41
0
  0
VERTEX
  8
0
 10
5.35183
 20
22.5357
 30
0.0
 40
0
 41
0
  0
VERTEX
  8
0
 10
5.43886
 20
22.5357
 30
0.0
 40
0
 41
0
  0
VERTEX
  8
0
 10
5.43886
 20
23.2096
 30
0.0
 40
0
 41
0
  0
VERTEX
  8
0
 10
5.35183
 20
23.2096
 30
0.0
 40
0
 41
0
  0
SEQEND
 8
0
  0
POLYLINE
  8
0
 62
     0
 66
     1
 10
0
 20
0
 30
0.0
 70
     1
 40
0
 41
0
  0
VERTEX
  8
0
 10
5.59788
 20
22.5357
 30
0.0
 40
0
 41
0
  0
VERTEX
  8
0
 10
5.68599
 20
22.5357
 30
0.0
 40
0
 41
0
  0
VERTEX
  8
0
 10
5.68599
 20
22.8267
 30
0.0
 40
0
 41
0
  0
VERTEX
  8
0
 10
5.68599
 20
22.8369
 30
0.0
 40
0
 41
0
  0
VERTEX
  8
0
 10
5.69086
 20
22.8649
 30
0.0
 40
0
 41
0
  0
VERTEX
  8
0
 10
5.69185
 20
22.8675
 30
0.0
 40
0
 41
0
  0
VERTEX
  8
0
 10
5.69461
 20
22.8767
 30
0.0
 40
0
 41
0
  0
VERTEX
  8
0
 10
5.70844
 20
22.9022
 30
0.0
 40
0
 41
0
  0
VERTEX
  8
0
 10
5.73475
 20
22.931
 30
0.0
 40
0
 41
0
  0
VERTEX
  8
0
 10
5.7691
 20
22.9504
 30
0.0
 40
0
 41
0
  0
VERTEX
  8
0
 10
5.79969
 20
22.9576
 30
0.0
 40
0
 41
0
  0
VERTEX
  8
0
 10
5.8099
 20
22.9576
 30
0.0
 40
0
 41
0
  0
VERTEX
  8
0
 10
5.82297
 20
22.9576
 30
0.0
 40
0
 41
0
  0
VERTEX
  8
0
 10
5.86236
 20
22.9463
 30
0.0
 40
0
 41
0
  0
VERTEX
  8
0
 10
5.89697
 20
22.9154
 30
0.0
 40
0
 41
0
  0
VERTEX
  8
0
 10
5.91601
 20
22.8699
 30
0.0
 40
0
 41
0
  0
VERTEX
  8
0
 10
5.92188
 20
22.8283
 30
0.0
 40
0
 41
0
  0
VERTEX
  8
0
 10
5.92188
 20
22.8146
 30
0.0
 40
0
 41
0
  0
VERTEX
  8
0
 10
5.92188
 20
22.5357
 30
0.0
 40
0
 41
0
  0
VERTEX
  8
0
 10
6.00976
 20
22.5357
 30
0.0
 40
0
 41
0
  0
VERTEX
  8
0
 10
6.00976
 20
22.8246
 30
0.0
 40
0
 41
0
  0
VERTEX
  8
0
 10
6.00976
 20
22.8388
 30
0.0
 40
0
 41
0
  0
VERTEX
  8
0
 10
6.00515
 20
22.8811
 30
0.0
 40
0
 41
0
  0
VERTEX
  8
0
 10
5.99246
 20
22.9268
 30
0.0
 40
0
 41
0
  0
VERTEX
  8
0
 10
5.97331
 20
22.9626
 30
0.0
 40
0
 41
0
  0
VERTEX
  8
0
 10
5.94943
 20
22.9899
 30
0.0
 40
0
 41
0
  0
VERTEX
  8
0
 10
5.92236
 20
23.0092
 30
0.0
 40
0
 41
0
  0
VERTEX
  8
0
 10
5.89382
 20
23.0217
 30
0.0
 40
0
 41
0
  0
VERTEX
  8
0
 10
5.86546
 20
23.0285
 30
0.0
 40
0
 41
0
  0
VERTEX
  8
0
 10
5.8456
 20
23.0306
 30
0.0
 40
0
 41
0
  0
VERTEX
  8
0
 10
5.83897
 20
23.0306
 30
0.0
 40
0
 41
0
  0
VERTEX
  8
0
 10
5.82508
 20
23.0306
 30
0.0
 40
0
 41
0
  0
VERTEX
  8
0
 10
5.78353
 20
23.0228
 30
0.0
 40
0
 41
0
  0
VERTEX
  8
0
 10
5.7379
 20
23.0022
 30
0.0
 40
0
 41
0
  0
VERTEX
  8
0
 10
5.70275
 20
22.9732
 30
0.0
 40
0
 41
0
  0
VERTEX
  8
0
 10
5.68354
 20
22.9486
 30
0.0
 40
0
 41
0
  0
VERTEX
  8
0
 10
5.67882
 20
22.9396
 30
0.0
 40
0
 41
0
  0
VERTEX
  8
0
 10
5.67686
 20
22.9396
 30
0.0
 40
0
 41
0
  0
VERTEX
  8
0
 10
5.67188
 20
23.0196
 30
0.0
 40
0
 41
0
  0
VERTEX
  8
0
 10
5.59397
 20
23.0196
 30
0.0
 40
0
 41
0
  0
VERTEX
  8
0
 10
5.59472
 20
23.0096
 30
0.0
 40
0
 41
0
  0
VERTEX
  8
0
 10
5.59706
 20
22.9578
 30
0.0
 40
0
 41
0
  0
VERTEX
  8
0
 10
5.59788
 20
22.906
 30
0.0
 40
0
 41
0
  0
VERTEX
  8
0
 10
5.59788
 20
22.8886
 30
0.0
 40
0
 41
0
  0
VERTEX
  8
0
 10
5.59788
 20
22.5357
 30
0.0
 40
0
 41
0
  0
SEQEND
 8
0
  0
POLYLINE
  8
0
 62
     0
 66
     1
 10
0
 20
0
 30
0.0
 70
     1
 40
0
 41
0
  0
VERTEX
  8
0
 10
6.11897
 20
22.5587
 30
0.0
 40
0
 41
0
  0
VERTEX
  8
0
 10
6.12744
 20
22.5538
 30
0.0
 40
0
 41
0
  0
VERTEX
  8
0
 10
6.17974
 20
22.5347
 30
0.0
 40
0
 41
0
  0
VERTEX
  8
0
 10
6.23606
 20
22.5257
 30
0.0
 40
0
 41
0
  0
VERTEX
  8
0
 10
6.25483
 20
22.5257
 30
0.0
 40
0
 41
0
  0
VERTEX
  8
0
 10
6.27399
 20
22.5257
 30
0.0
 40
0
 41
0
  0
VERTEX
  8
0
 10
6.3316
 20
22.5364
 30
0.0
 40
0
 41
0
  0
VERTEX
  8
0
 10
6.38846
 20
22.5663
 30
0.0
 40
0
 41
0
  0
VERTEX
  8
0
 10
6.42367
 20
22.6121
 30
0.0
 40
0
 41
0
  0
VERTEX
  8
0
 10
6.43582
 20
22.6561
 30
0.0
 40
0
 41
0
  0
VERTEX
  8
0
 10
6.43582
 20
22.6707
 30
0.0
 40
0
 41
0
  0
VERTEX
  8
0
 10
6.43582
 20
22.6829
 30
0.0
 40
0
 41
0
  0
VERTEX
  8
0
 10
6.42779
 20
22.7194
 30
0.0
 40
0
 41
0
  0
VERTEX
  8
0
 10
6.40381
 20
22.7588
 30
0.0
 40
0
 41
0
  0
VERTEX
  8
0
 10
6.3641
 20
22.7906
 30
0.0
 40
0
 41
0
  0
VERTEX
  8
0
 10
6.32308
 20
22.8113
 30
0.0
 40
0
 41
0
  0
VERTEX
  8
0
 10
6.30886
 20
22.8167
 30
0.0
 40
0
 41
0
  0
VERTEX
  8
0
 10
6.29844
 20
22.8207
 30
0.0
 40
0
 41
0
  0
VERTEX
  8
0
 10
6.2679
 20
22.834
 30
0.0
 40
0
 41
0
  0
VERTEX
  8
0
 10
6.23926
 20
22.8517
 30
0.0
 40
0
 41
0
  0
VERTEX
  8
0
 10
6.22233
 20
22.8722
 30
0.0
 40
0
 41
0
  0
VERTEX
  8
0
 10
6.21685
 20
22.8919
 30
0.0
 40
0
 41
0
  0
VERTEX
  8
0
 10
6.21685
 20
22.8986
 30
0.0
 40
0
 41
0
  0
VERTEX
  8
0
 10
6.21685
 20
22.905
 30
0.0
 40
0
 41
0
  0
VERTEX
  8
0
 10
6.22217
 20
22.9242
 30
0.0
 40
0
 41
0
  0
VERTEX
  8
0
 10
6.23785
 20
22.945
 30
0.0
 40
0
 41
0
  0
VERTEX
  8
0
 10
6.26324
 20
22.9593
 30
0.0
 40
0
 41
0
  0
VERTEX
  8
0
 10
6.28911
 20
22.9646
 30
0.0
 40
0
 41
0
  0
VERTEX
  8
0
 10
6.29779
 20
22.9646
 30
0.0
 40
0
 41
0
  0
VERTEX
  8
0
 10
6.31261
 20
22.9646
 30
0.0
 40
0
 41
0
  0
VERTEX
  8
0
 10
6.3571
 20
22.9551
 30
0.0
 40
0
 41
0
  0
VERTEX
  8
0
 10
6.39204
 20
22.9396
 30
0.0
 40
0
 41
0
  0
VERTEX
  8
0
 10
6.39675
 20
22.9365
 30
0.0
 40
0
 41
0
  0
VERTEX
  8
0
 10
6.41889
 20
23.0006
 30
0.0
 40
0
 41
0
  0
VERTEX
  8
0
 10
6.41211
 20
23.0046
 30
0.0
 40
0
 41
0
  0
VERTEX
  8
0
 10
6.36751
 20
23.0215
 30
0.0
 40
0
 41
0
  0
VERTEX
  8
0
 10
6.31668
 20
23.0306
 30
0.0
 40
0
 41
0
  0
VERTEX
  8
0
 10
6.29975
 20
23.0306
 30
0.0
 40
0
 41
0
  0
VERTEX
  8
0
 10
6.28222
 20
23.0306
 30
0.0
 40
0
 41
0
  0
VERTEX
  8
0
 10
6.22982
 20
23.0193
 30
0.0
 40
0
 41
0
  0
VERTEX
  8
0
 10
6.17731
 20
22.9889
 30
0.0
 40
0
 41
0
  0
VERTEX
  8
0
 10
6.14432
 20
22.9437
 30
0.0
 40
0
 41
0
  0
VERTEX
  8
0
 10
6.13286
 20
22.9024
 30
0.0
 40
0
 41
0
  0
VERTEX
  8
0
 10
6.13286
 20
22.8886
 30
0.0
 40
0
 41
0
  0
VERTEX
  8
0
 10
6.13286
 20
22.8782
 30
0.0
 40
0
 41
0
  0
VERTEX
  8
0
 10
6.14063
 20
22.8471
 30
0.0
 40
0
 41
0
  0
VERTEX
  8
0
 10
6.16422
 20
22.81
 30
0.0
 40
0
 41
0
  0
VERTEX
  8
0
 10
6.20415
 20
22.7781
 30
0.0
 40
0
 41
0
  0
VERTEX
  8
0
 10
6.24621
 20
22.7569
 30
0.0
 40
0
 41
0
  0
VERTEX
  8
0
 10
6.2609
 20
22.7517
 30
0.0
 40
0
 41
0
  0
VERTEX
  8
0
 10
6.27143
 20
22.7478
 30
0.0
 40
0
 41
0
  0
VERTEX
  8
0
 10
6.30231
 20
22.7336
 30
0.0
 40
0
 41
0
  0
VERTEX
  8
0
 10
6.33014
 20
22.714
 30
0.0
 40
0
 41
0
  0
VERTEX
  8
0
 10
6.34581
 20
22.691
 30
0.0
 40
0
 41
0
  0
VERTEX
  8
0
 10
6.35075
 20
22.6697
 30
0.0
 40
0
 41
0
  0
VERTEX
  8
0
 10
6.35075
 20
22.6626
 30
0.0
 40
0
 41
0
  0
VERTEX
  8
0
 10
6.35075
 20
22.6557
 30
0.0
 40
0
 41
0
  0
VERTEX
  8
0
 10
6.34506
 20
22.6346
 30
0.0
 40
0
 41
0
  0
VERTEX
  8
0
 10
6.32775
 20
22.6117
 30
0.0
 40
0
 41
0
  0
VERTEX
  8
0
 10
6.29844
 20
22.5963
 30
0.0
 40
0
 41
0
  0
VERTEX
  8
0
 10
6.26719
 20
22.5906
 30
0.0
 40
0
 41
0
  0
VERTEX
  8
0
 10
6.25678
 20
22.5906
 30
0.0
 40
0
 41
0
  0
VERTEX
  8
0
 10
6.24854
 20
22.5906
 30
0.0
 40
0
 41
0
  0
VERTEX
  8
0
 10
6.22379
 20
22.5938
 30
0.0
 40
0
 41
0
  0
VERTEX
  8
0
 10
6.19217
 20
22.6018
 30
0.0
 40
0
 41
0
  0
VERTEX
  8
0
 10
6.16379
 20
22.6131
 30
0.0
 40
0
 41
0
  0
VERTEX
  8
0
 10
6.14632
 20
22.6222
 30
0.0
 40
0
 41
0
  0
VERTEX
  8
0
 10
6.1409
 20
22.6257
 30
0.0
 40
0
 41
0
  0
VERTEX
  8
0
 10
6.11897
 20
22.5587
 30
0.0
 40
0
 41
0
  0
SEQEND
 8
0
  0
POLYLINE
  8
0
 62
     0
 66
     1
 10
0
 20
0
 30
0.0
 70
     1
 40
0
 41
0
  0
VERTEX
  8
0
 10
6.63693
 20
22.5357
 30
0.0
 40
0
 41
0
  0
VERTEX
  8
0
 10
6.63693
 20
23.0196
 30
0.0
 40
0
 41
0
  0
VERTEX
  8
0
 10
6.54883
 20
23.0196
 30
0.0
 40
0
 41
0
  0
VERTEX
  8
0
 10
6.54883
 20
22.5357
 30
0.0
 40
0
 41
0
  0
VERTEX
  8
0
 10
6.63693
 20
22.5357
 30
0.0
 40
0
 41
0
  0
SEQEND
 8
0
  0
POLYLINE
  8
0
 62
     0
 66
     1
 10
0
 20
0
 30
0.0
 70
     1
 40
0
 41
0
  0
VERTEX
  8
0
 10
6.59289
 20
23.2106
 30
0.0
 40
0
 41
0
  0
VERTEX
  8
0
 10
6.58735
 20
23.2106
 30
0.0
 40
0
 41
0
  0
VERTEX
  8
0
 10
6.57081
 20
23.2064
 30
0.0
 40
0
 41
0
  0
VERTEX
  8
0
 10
6.55344
 20
23.1947
 30
0.0
 40
0
 41
0
  0
VERTEX
  8
0
 10
6.54204
 20
23.1772
 30
0.0
 40
0
 41
0
  0
VERTEX
  8
0
 10
6.53797
 20
23.161
 30
0.0
 40
0
 41
0
  0
VERTEX
  8
0
 10
6.53797
 20
23.1556
 30
0.0
 40
0
 41
0
  0
VERTEX
  8
0
 10
6.53797
 20
23.1503
 30
0.0
 40
0
 41
0
  0
VERTEX
  8
0
 10
6.54189
 20
23.1344
 30
0.0
 40
0
 41
0
  0
VERTEX
  8
0
 10
6.55279
 20
23.1172
 30
0.0
 40
0
 41
0
  0
VERTEX
  8
0
 10
6.56956
 20
23.1057
 30
0.0
 40
0
 41
0
  0
VERTEX
  8
0
 10
6.58556
 20
23.1014
 30
0.0
 40
0
 41
0
  0
VERTEX
  8
0
 10
6.59093
 20
23.1014
 30
0.0
 40
0
 41
0
  0
VERTEX
  8
0
 10
6.59679
 20
23.1014
 30
0.0
 40
0
 41
0
  0
VERTEX
  8
0
 10
6.61453
 20
23.1057
 30
0.0
 40
0
 41
0
  0
VERTEX
  8
0
 10
6.63232
 20
23.1172
 30
0.0
 40
0
 41
0
  0
VERTEX
  8
0
 10
6.64344
 20
23.1344
 30
0.0
 40
0
 41
0
  0
VERTEX
  8
0
 10
6.64703
 20
23.1503
 30
0.0
 40
0
 41
0
  0
VERTEX
  8
0
 10
6.64692
 20
23.1556
 30
0.0
 40
0
 41
0
  0
VERTEX
  8
0
 10
6.64692
 20
23.161
 30
0.0
 40
0
 41
0
  0
VERTEX
  8
0
 10
6.64307
 20
23.1772
 30
0.0
 40
0
 41
0
  0
VERTEX
  8
0
 10
6.63226
 20
23.1947
 30
0.0
 40
0
 41
0
  0
VERTEX
  8
0
 10
6.61524
 20
23.2064
 30
0.0
 40
0
 41
0
  0
VERTEX
  8
0
 10
6.59847
 20
23.2106
 30
0.0
 40
0
 41
0
  0
VERTEX
  8
0
 10
6.59289
 20
23.2106
 30
0.0
 40
0
 41
0
  0
SEQEND
 8
0
  0
POLYLINE
  8
0
 62
     0
 66
     1
 10
0
 20
0
 30
0.0
 70
     1
 40
0
 41
0
  0
VERTEX
  8
0
 10
7.1129
 20
23.2456
 30
0.0
 40
0
 41
0
  0
VERTEX
  8
0
 10
7.1129
 20
22.9565
 30
0.0
 40
0
 41
0
  0
VERTEX
  8
0
 10
7.11074
 20
22.9565
 30
0.0
 40
0
 41
0
  0
VERTEX
  8
0
 10
7.10644
 20
22.9642
 30
0.0
 40
0
 41
0
  0
VERTEX
  8
0
 10
7.08908
 20
22.9846
 30
0.0
 40
0
 41
0
  0
VERTEX
  8
0
 10
7.05735
 20
23.0082
 30
0.0
 40
0
 41
0
  0
VERTEX
  8
0
 10
7.01579
 20
23.0244
 30
0.0
 40
0
 41
0
  0
VERTEX
  8
0
 10
6.9776
 20
23.0306
 30
0.0
 40
0
 41
0
  0
VERTEX
  8
0
 10
6.9649
 20
23.0306
 30
0.0
 40
0
 41
0
  0
VERTEX
  8
0
 10
6.9439
 20
23.0306
 30
0.0
 40
0
 41
0
  0
VERTEX
  8
0
 10
6.88103
 20
23.0125
 30
0.0
 40
0
 41
0
  0
VERTEX
  8
0
 10
6.81168
 20
22.961
 30
0.0
 40
0
 41
0
  0
VERTEX
  8
0
 10
6.76471
 20
22.8792
 30
0.0
 40
0
 41
0
  0
VERTEX
  8
0
 10
6.74767
 20
22.7978
 30
0.0
 40
0
 41
0
  0
VERTEX
  8
0
 10
6.74789
 20
22.7707
 30
0.0
 40
0
 41
0
  0
VERTEX
  8
0
 10
6.74789
 20
22.7456
 30
0.0
 40
0
 41
0
  0
VERTEX
  8
0
 10
6.76378
 20
22.6703
 30
0.0
 40
0
 41
0
  0
VERTEX
  8
0
 10
6.80751
 20
22.5925
 30
0.0
 40
0
 41
0
  0
VERTEX
  8
0
 10
6.87321
 20
22.5424
 30
0.0
 40
0
 41
0
  0
VERTEX
  8
0
 10
6.93446
 20
22.5246
 30
0.0
 40
0
 41
0
  0
VERTEX
  8
0
 10
6.95492
 20
22.5246
 30
0.0
 40
0
 41
0
  0
VERTEX
  8
0
 10
6.96869
 20
22.5246
 30
0.0
 40
0
 41
0
  0
VERTEX
  8
0
 10
7.01014
 20
22.5319
 30
0.0
 40
0
 41
0
  0
VERTEX
  8
0
 10
7.05681
 20
22.5519
 30
0.0
 40
0
 41
0
  0
VERTEX
  8
0
 10
7.09369
 20
22.5821
 30
0.0
 40
0
 41
0
  0
VERTEX
  8
0
 10
7.11475
 20
22.6096
 30
0.0
 40
0
 41
0
  0
VERTEX
  8
0
 10
7.11985
 20
22.6197
 30
0.0
 40
0
 41
0
  0
VERTEX
  8
0
 10
7.12181
 20
22.6197
 30
0.0
 40
0
 41
0
  0
VERTEX
  8
0
 10
7.12571
 20
22.5357
 30
0.0
 40
0
 41
0
  0
VERTEX
  8
0
 10
7.20469
 20
22.5357
 30
0.0
 40
0
 41
0
  0
VERTEX
  8
0
 10
7.204
 20
22.5439
 30
0.0
 40
0
 41
0
  0
VERTEX
  8
0
 10
7.20167
 20
22.5944
 30
0.0
 40
0
 41
0
  0
VERTEX
  8
0
 10
7.20079
 20
22.6442
 30
0.0
 40
0
 41
0
  0
VERTEX
  8
0
 10
7.20079
 20
22.6607
 30
0.0
 40
0
 41
0
  0
VERTEX
  8
0
 10
7.20079
 20
23.2456
 30
0.0
 40
0
 41
0
  0
VERTEX
  8
0
 10
7.1129
 20
23.2456
 30
0.0
 40
0
 41
0
  0
SEQEND
 8
0
  0
POLYLINE
  8
0
 62
     0
 66
     1
 10
0
 20
0
 30
0.0
 70
     1
 40
0
 41
0
  0
VERTEX
  8
0
 10
7.1129
 20
22.7386
 30
0.0
 40
0
 41
0
  0
VERTEX
  8
0
 10
7.1129
 20
22.7292
 30
0.0
 40
0
 41
0
  0
VERTEX
  8
0
 10
7.10954
 20
22.7036
 30
0.0
 40
0
 41
0
  0
VERTEX
  8
0
 10
7.10878
 20
22.7007
 30
0.0
 40
0
 41
0
  0
VERTEX
  8
0
 10
7.10596
 20
22.6892
 30
0.0
 40
0
 41
0
  0
VERTEX
  8
0
 10
7.09011
 20
22.6564
 30
0.0
 40
0
 41
0
  0
VERTEX
  8
0
 10
7.06044
 20
22.6233
 30
0.0
 40
0
 41
0
  0
VERTEX
  8
0
 10
7.02263
 20
22.6028
 30
0.0
 40
0
 41
0
  0
VERTEX
  8
0
 10
6.99056
 20
22.5956
 30
0.0
 40
0
 41
0
  0
VERTEX
  8
0
 10
6.97987
 20
22.5956
 30
0.0
 40
0
 41
0
  0
VERTEX
  8
0
 10
6.96425
 20
22.5956
 30
0.0
 40
0
 41
0
  0
VERTEX
  8
0
 10
6.91743
 20
22.6099
 30
0.0
 40
0
 41
0
  0
VERTEX
  8
0
 10
6.87272
 20
22.6485
 30
0.0
 40
0
 41
0
  0
VERTEX
  8
0
 10
6.84581
 20
22.7054
 30
0.0
 40
0
 41
0
  0
VERTEX
  8
0
 10
6.83686
 20
22.7574
 30
0.0
 40
0
 41
0
  0
VERTEX
  8
0
 10
6.83686
 20
22.7746
 30
0.0
 40
0
 41
0
  0
VERTEX
  8
0
 10
6.83686
 20
22.7932
 30
0.0
 40
0
 41
0
  0
VERTEX
  8
0
 10
6.84668
 20
22.849
 30
0.0
 40
0
 41
0
  0
VERTEX
  8
0
 10
6.87522
 20
22.9082
 30
0.0
 40
0
 41
0
  0
VERTEX
  8
0
 10
6.92079
 20
22.9474
 30
0.0
 40
0
 41
0
  0
VERTEX
  8
0
 10
6.96653
 20
22.9615
 30
0.0
 40
0
 41
0
  0
VERTEX
  8
0
 10
6.98182
 20
22.9615
 30
0.0
 40
0
 41
0
  0
VERTEX
  8
0
 10
6.99328
 20
22.9615
 30
0.0
 40
0
 41
0
  0
VERTEX
  8
0
 10
7.02761
 20
22.9535
 30
0.0
 40
0
 41
0
  0
VERTEX
  8
0
 10
7.06515
 20
22.9315
 30
0.0
 40
0
 41
0
  0
VERTEX
  8
0
 10
7.09272
 20
22.8993
 30
0.0
 40
0
 41
0
  0
VERTEX
  8
0
 10
7.10639
 20
22.87
 30
0.0
 40
0
 41
0
  0
VERTEX
  8
0
 10
7.10878
 20
22.8597
 30
0.0
 40
0
 41
0
  0
VERTEX
  8
0
 10
7.10954
 20
22.8569
 30
0.0
 40
0
 41
0
  0
VERTEX
  8
0
 10
7.1129
 20
22.8312
 30
0.0
 40
0
 41
0
  0
VERTEX
  8
0
 10
7.1129
 20
22.8226
 30
0.0
 40
0
 41
0
  0
VERTEX
  8
0
 10
7.1129
 20
22.7386
 30
0.0
 40
0
 41
0
  0
SEQEND
 8
0
  0
POLYLINE
  8
0
 62
     0
 66
     1
 10
0
 20
0
 30
0.0
 70
     1
 40
0
 41
0
  0
VERTEX
  8
0
 10
7.73568
 20
22.7617
 30
0.0
 40
0
 41
0
  0
VERTEX
  8
0
 10
7.73594
 20
22.7639
 30
0.0
 40
0
 41
0
  0
VERTEX
  8
0
 10
7.73872
 20
22.7929
 30
0.0
 40
0
 41
0
  0
VERTEX
  8
0
 10
7.73872
 20
22.8026
 30
0.0
 40
0
 41
0
  0
VERTEX
  8
0
 10
7.73872
 20
22.821
 30
0.0
 40
0
 41
0
  0
VERTEX
  8
0
 10
7.72965
 20
22.8758
 30
0.0
 40
0
 41
0
  0
VERTEX
  8
0
 10
7.69803
 20
22.9499
 30
0.0
 40
0
 41
0
  0
VERTEX
  8
0
 10
7.63672
 20
23.0075
 30
0.0
 40
0
 41
0
  0
VERTEX
  8
0
 10
7.56332
 20
23.0306
 30
0.0
 40
0
 41
0
  0
VERTEX
  8
0
 10
7.53885
 20
23.0306
 30
0.0
 40
0
 41
0
  0
VERTEX
  8
0
 10
7.51508
 20
23.0306
 30
0.0
 40
0
 41
0
  0
VERTEX
  8
0
 10
7.44385
 20
23.0103
 30
0.0
 40
0
 41
0
  0
VERTEX
  8
0
 10
7.37244
 20
22.9549
 30
0.0
 40
0
 41
0
  0
VERTEX
  8
0
 10
7.32747
 20
22.8721
 30
0.0
 40
0
 41
0
  0
VERTEX
  8
0
 10
7.31185
 20
22.7953
 30
0.0
 40
0
 41
0
  0
VERTEX
  8
0
 10
7.31185
 20
22.7696
 30
0.0
 40
0
 41
0
  0
VERTEX
  8
0
 10
7.31185
 20
22.7447
 30
0.0
 40
0
 41
0
  0
VERTEX
  8
0
 10
7.32807
 20
22.6699
 30
0.0
 40
0
 41
0
  0
VERTEX
  8
0
 10
7.37494
 20
22.5929
 30
0.0
 40
0
 41
0
  0
VERTEX
  8
0
 10
7.44971
 20
22.5433
 30
0.0
 40
0
 41
0
  0
VERTEX
  8
0
 10
7.52468
 20
22.5257
 30
0.0
 40
0
 41
0
  0
VERTEX
  8
0
 10
7.54969
 20
22.5257
 30
0.0
 40
0
 41
0
  0
VERTEX
  8
0
 10
7.56299
 20
22.5257
 30
0.0
 40
0
 41
0
  0
VERTEX
  8
0
 10
7.60297
 20
22.5285
 30
0.0
 40
0
 41
0
  0
VERTEX
  8
0
 10
7.64746
 20
22.5354
 30
0.0
 40
0
 41
0
  0
VERTEX
  8
0
 10
7.68326
 20
22.5451
 30
0.0
 40
0
 41
0
  0
VERTEX
  8
0
 10
7.704
 20
22.5526
 30
0.0
 40
0
 41
0
  0
VERTEX
  8
0
 10
7.71072
 20
22.5557
 30
0.0
 40
0
 41
0
  0
VERTEX
  8
0
 10
7.69575
 20
22.6186
 30
0.0
 40
0
 41
0
  0
VERTEX
  8
0
 10
7.6875
 20
22.6151
 30
0.0
 40
0
 41
0
  0
VERTEX
  8
0
 10
7.64003
 20
22.601
 30
0.0
 40
0
 41
0
  0
VERTEX
  8
0
 10
7.58138
 20
22.5936
 30
0.0
 40
0
 41
0
  0
VERTEX
  8
0
 10
7.56185
 20
22.5936
 30
0.0
 40
0
 41
0
  0
VERTEX
  8
0
 10
7.54611
 20
22.5936
 30
0.0
 40
0
 41
0
  0
VERTEX
  8
0
 10
7.49897
 20
22.6032
 30
0.0
 40
0
 41
0
  0
VERTEX
  8
0
 10
7.4465
 20
22.6331
 30
0.0
 40
0
 41
0
  0
VERTEX
  8
0
 10
7.41015
 20
22.6853
 30
0.0
 40
0
 41
0
  0
VERTEX
  8
0
 10
7.39611
 20
22.7425
 30
0.0
 40
0
 41
0
  0
VERTEX
  8
0
 10
7.39583
 20
22.7617
 30
0.0
 40
0
 41
0
  0
VERTEX
  8
0
 10
7.73568
 20
22.7617
 30
0.0
 40
0
 41
0
  0
SEQEND
 8
0
  0
POLYLINE
  8
0
 62
     0
 66
     1
 10
0
 20
0
 30
0.0
 70
     1
 40
0
 41
0
  0
VERTEX
  8
0
 10
7.39692
 20
22.8246
 30
0.0
 40
0
 41
0
  0
VERTEX
  8
0
 10
7.39828
 20
22.8368
 30
0.0
 40
0
 41
0
  0
VERTEX
  8
0
 10
7.40842
 20
22.8726
 30
0.0
 40
0
 41
0
  0
VERTEX
  8
0
 10
7.43365
 20
22.9189
 30
0.0
 40
0
 41
0
  0
VERTEX
  8
0
 10
7.47424
 20
22.9539
 30
0.0
 40
0
 41
0
  0
VERTEX
  8
0
 10
7.51747
 20
22.9675
 30
0.0
 40
0
 41
0
  0
VERTEX
  8
0
 10
7.5319
 20
22.9675
 30
0.0
 40
0
 41
0
  0
VERTEX
  8
0
 10
7.54031
 20
22.9675
 30
0.0
 40
0
 41
0
  0
VERTEX
  8
0
 10
7.56554
 20
22.9638
 30
0.0
 40
0
 41
0
  0
VERTEX
  8
0
 10
7.59283
 20
22.9532
 30
0.0
 40
0
 41
0
  0
VERTEX
  8
0
 10
7.61421
 20
22.9371
 30
0.0
 40
0
 41
0
  0
VERTEX
  8
0
 10
7.63032
 20
22.9171
 30
0.0
 40
0
 41
0
  0
VERTEX
  8
0
 10
7.64171
 20
22.8944
 30
0.0
 40
0
 41
0
  0
VERTEX
  8
0
 10
7.64908
 20
22.8706
 30
0.0
 40
0
 41
0
  0
VERTEX
  8
0
 10
7.65289
 20
22.8468
 30
0.0
 40
0
 41
0
  0
VERTEX
  8
0
 10
7.65392
 20
22.8301
 30
0.0
 40
0
 41
0
  0
VERTEX
  8
0
 10
7.65386
 20
22.8246
 30
0.0
 40
0
 41
0
  0
VERTEX
  8
0
 10
7.39692
 20
22.8246
 30
0.0
 40
0
 41
0
  0
SEQEND
 8
0
  0
POLYLINE
  8
0
 62
     0
 66
     1
 10
0
 20
0
 30
0.0
 70
     1
 40
0
 41
0
  0
VERTEX
  8
0
 10
7.84082
 20
22.4958
 30
0.0
 40
0
 41
0
  0
VERTEX
  8
0
 10
8.12076
 20
23.2206
 30
0.0
 40
0
 41
0
  0
VERTEX
  8
0
 10
8.05285
 20
23.2206
 30
0.0
 40
0
 41
0
  0
VERTEX
  8
0
 10
7.77376
 20
22.4958
 30
0.0
 40
0
 41
0
  0
VERTEX
  8
0
 10
7.84082
 20
22.4958
 30
0.0
 40
0
 41
0
  0
SEQEND
 8
0
  0
POLYLINE
  8
0
 62
     0
 66
     1
 10
0
 20
0
 30
0.0
 70
     1
 40
0
 41
0
  0
VERTEX
  8
0
 10
8.14779
 20
22.5357
 30
0.0
 40
0
 41
0
  0
VERTEX
  8
0
 10
8.63976
 20
22.5357
 30
0.0
 40
0
 41
0
  0
VERTEX
  8
0
 10
8.63976
 20
22.6086
 30
0.0
 40
0
 41
0
  0
VERTEX
  8
0
 10
8.26281
 20
22.6086
 30
0.0
 40
0
 41
0
  0
VERTEX
  8
0
 10
8.26281
 20
22.6117
 30
0.0
 40
0
 41
0
  0
VERTEX
  8
0
 10
8.63476
 20
23.1565
 30
0.0
 40
0
 41
0
  0
VERTEX
  8
0
 10
8.63476
 20
23.2096
 30
0.0
 40
0
 41
0
  0
VERTEX
  8
0
 10
8.1799
 20
23.2096
 30
0.0
 40
0
 41
0
  0
VERTEX
  8
0
 10
8.1799
 20
23.1367
 30
0.0
 40
0
 41
0
  0
VERTEX
  8
0
 10
8.52171
 20
23.1367
 30
0.0
 40
0
 41
0
  0
VERTEX
  8
0
 10
8.52171
 20
23.1336
 30
0.0
 40
0
 41
0
  0
VERTEX
  8
0
 10
8.14779
 20
22.5867
 30
0.0
 40
0
 41
0
  0
VERTEX
  8
0
 10
8.14779
 20
22.5357
 30
0.0
 40
0
 41
0
  0
SEQEND
 8
0
  0
POLYLINE
  8
0
 62
     0
 66
     1
 10
0
 20
0
 30
0.0
 70
     1
 40
0
 41
0
  0
VERTEX
  8
0
 10
9.12061
 20
22.7617
 30
0.0
 40
0
 41
0
  0
VERTEX
  8
0
 10
9.12088
 20
22.7639
 30
0.0
 40
0
 41
0
  0
VERTEX
  8
0
 10
9.12364
 20
22.7929
 30
0.0
 40
0
 41
0
  0
VERTEX
  8
0
 10
9.12364
 20
22.8026
 30
0.0
 40
0
 41
0
  0
VERTEX
  8
0
 10
9.12364
 20
22.821
 30
0.0
 40
0
 41
0
  0
VERTEX
  8
0
 10
9.11458
 20
22.8758
 30
0.0
 40
0
 41
0
  0
VERTEX
  8
0
 10
9.08296
 20
22.9499
 30
0.0
 40
0
 41
0
  0
VERTEX
  8
0
 10
9.02165
 20
23.0075
 30
0.0
 40
0
 41
0
  0
VERTEX
  8
0
 10
8.94824
 20
23.0306
 30
0.0
 40
0
 41
0
  0
VERTEX
  8
0
 10
8.92378
 20
23.0306
 30
0.0
 40
0
 41
0
  0
VERTEX
  8
0
 10
8.90001
 20
23.0306
 30
0.0
 40
0
 41
0
  0
VERTEX
  8
0
 10
8.82878
 20
23.0103
 30
0.0
 40
0
 41
0
  0
VERTEX
  8
0
 10
8.75738
 20
22.9549
 30
0.0
 40
0
 41
0
  0
VERTEX
  8
0
 10
8.7124
 20
22.8721
 30
0.0
 40
0
 41
0
  0
VERTEX
  8
0
 10
8.69678
 20
22.7953
 30
0.0
 40
0
 41
0
  0
VERTEX
  8
0
 10
8.69678
 20
22.7696
 30
0.0
 40
0
 41
0
  0
VERTEX
  8
0
 10
8.69678
 20
22.7447
 30
0.0
 40
0
 41
0
  0
VERTEX
  8
0
 10
8.713
 20
22.6699
 30
0.0
 40
0
 41
0
  0
VERTEX
  8
0
 10
8.75988
 20
22.5929
 30
0.0
 40
0
 41
0
  0
VERTEX
  8
0
 10
8.83464
 20
22.5433
 30
0.0
 40
0
 41
0
  0
VERTEX
  8
0
 10
8.90961
 20
22.5257
 30
0.0
 40
0
 41
0
  0
VERTEX
  8
0
 10
8.93463
 20
22.5257
 30
0.0
 40
0
 41
0
  0
VERTEX
  8
0
 10
8.94792
 20
22.5257
 30
0.0
 40
0
 41
0
  0
VERTEX
  8
0
 10
8.9879
 20
22.5285
 30
0.0
 40
0
 41
0
  0
VERTEX
  8
0
 10
9.03239
 20
22.5354
 30
0.0
 40
0
 41
0
  0
VERTEX
  8
0
 10
9.06819
 20
22.5451
 30
0.0
 40
0
 41
0
  0
VERTEX
  8
0
 10
9.08892
 20
22.5526
 30
0.0
 40
0
 41
0
  0
VERTEX
  8
0
 10
9.09565
 20
22.5557
 30
0.0
 40
0
 41
0
  0
VERTEX
  8
0
 10
9.08068
 20
22.6186
 30
0.0
 40
0
 41
0
  0
VERTEX
  8
0
 10
9.07243
 20
22.6151
 30
0.0
 40
0
 41
0
  0
VERTEX
  8
0
 10
9.02496
 20
22.601
 30
0.0
 40
0
 41
0
  0
VERTEX
  8
0
 10
8.96631
 20
22.5936
 30
0.0
 40
0
 41
0
  0
VERTEX
  8
0
 10
8.94678
 20
22.5936
 30
0.0
 40
0
 41
0
  0
VERTEX
  8
0
 10
8.93104
 20
22.5936
 30
0.0
 40
0
 41
0
  0
VERTEX
  8
0
 10
8.8839
 20
22.6032
 30
0.0
 40
0
 41
0
  0
VERTEX
  8
0
 10
8.83143
 20
22.6331
 30
0.0
 40
0
 41
0
  0
VERTEX
  8
0
 10
8.79508
 20
22.6853
 30
0.0
 40
0
 41
0
  0
VERTEX
  8
0
 10
8.78103
 20
22.7425
 30
0.0
 40
0
 41
0
  0
VERTEX
  8
0
 10
8.78076
 20
22.7617
 30
0.0
 40
0
 41
0
  0
VERTEX
  8
0
 10
9.12061
 20
22.7617
 30
0.0
 40
0
 41
0
  0
SEQEND
 8
0
  0
POLYLINE
  8
0
 62
     0
 66
     1
 10
0
 20
0
 30
0.0
 70
     1
 40
0
 41
0
  0
VERTEX
  8
0
 10
8.78185
 20
22.8246
 30
0.0
 40
0
 41
0
  0
VERTEX
  8
0
 10
8.78321
 20
22.8368
 30
0.0
 40
0
 41
0
  0
VERTEX
  8
0
 10
8.79335
 20
22.8726
 30
0.0
 40
0
 41
0
  0
VERTEX
  8
0
 10
8.81858
 20
22.9189
 30
0.0
 40
0
 41
0
  0
VERTEX
  8
0
 10
8.85915
 20
22.9539
 30
0.0
 40
0
 41
0
  0
VERTEX
  8
0
 10
8.9024
 20
22.9675
 30
0.0
 40
0
 41
0
  0
VERTEX
  8
0
 10
8.91683
 20
22.9675
 30
0.0
 40
0
 41
0
  0
VERTEX
  8
0
 10
8.92524
 20
22.9675
 30
0.0
 40
0
 41
0
  0
VERTEX
  8
0
 10
8.95047
 20
22.9638
 30
0.0
 40
0
 41
0
  0
VERTEX
  8
0
 10
8.97775
 20
22.9532
 30
0.0
 40
0
 41
0
  0
VERTEX
  8
0
 10
8.99914
 20
22.9371
 30
0.0
 40
0
 41
0
  0
VERTEX
  8
0
 10
9.01525
 20
22.9171
 30
0.0
 40
0
 41
0
  0
VERTEX
  8
0
 10
9.02664
 20
22.8944
 30
0.0
 40
0
 41
0
  0
VERTEX
  8
0
 10
9.03401
 20
22.8706
 30
0.0
 40
0
 41
0
  0
VERTEX
  8
0
 10
9.03782
 20
22.8468
 30
0.0
 40
0
 41
0
  0
VERTEX
  8
0
 10
9.03885
 20
22.8301
 30
0.0
 40
0
 41
0
  0
VERTEX
  8
0
 10
9.03879
 20
22.8246
 30
0.0
 40
0
 41
0
  0
VERTEX
  8
0
 10
8.78185
 20
22.8246
 30
0.0
 40
0
 41
0
  0
SEQEND
 8
0
  0
POLYLINE
  8
0
 62
     0
 66
     1
 10
0
 20
0
 30
0.0
 70
     1
 40
0
 41
0
  0
VERTEX
  8
0
 10
9.23269
 20
22.5357
 30
0.0
 40
0
 41
0
  0
VERTEX
  8
0
 10
9.31972
 20
22.5357
 30
0.0
 40
0
 41
0
  0
VERTEX
  8
0
 10
9.31972
 20
22.7938
 30
0.0
 40
0
 41
0
  0
VERTEX
  8
0
 10
9.31972
 20
22.8039
 30
0.0
 40
0
 41
0
  0
VERTEX
  8
0
 10
9.32329
 20
22.8315
 30
0.0
 40
0
 41
0
  0
VERTEX
  8
0
 10
9.32383
 20
22.8346
 30
0.0
 40
0
 41
0
  0
VERTEX
  8
0
 10
9.3259
 20
22.8463
 30
0.0
 40
0
 41
0
  0
VERTEX
  8
0
 10
9.33854
 20
22.88
 30
0.0
 40
0
 41
0
  0
VERTEX
  8
0
 10
9.36393
 20
22.9158
 30
0.0
 40
0
 41
0
  0
VERTEX
  8
0
 10
9.39871
 20
22.9393
 30
0.0
 40
0
 41
0
  0
VERTEX
  8
0
 10
9.43093
 20
22.9476
 30
0.0
 40
0
 41
0
  0
VERTEX
  8
0
 10
9.44168
 20
22.9476
 30
0.0
 40
0
 41
0
  0
VERTEX
  8
0
 10
9.44917
 20
22.9476
 30
0.0
 40
0
 41
0
  0
VERTEX
  8
0
 10
9.4694
 20
22.945
 30
0.0
 40
0
 41
0
  0
VERTEX
  8
0
 10
9.47162
 20
22.9446
 30
0.0
 40
0
 41
0
  0
VERTEX
  8
0
 10
9.47162
 20
23.0276
 30
0.0
 40
0
 41
0
  0
VERTEX
  8
0
 10
9.46962
 20
23.0282
 30
0.0
 40
0
 41
0
  0
VERTEX
  8
0
 10
9.45236
 20
23.0306
 30
0.0
 40
0
 41
0
  0
VERTEX
  8
0
 10
9.44667
 20
23.0306
 30
0.0
 40
0
 41
0
  0
VERTEX
  8
0
 10
9.43599
 20
23.0306
 30
0.0
 40
0
 41
0
  0
VERTEX
  8
0
 10
9.40392
 20
23.0231
 30
0.0
 40
0
 41
0
  0
VERTEX
  8
0
 10
9.36578
 20
23.0019
 30
0.0
 40
0
 41
0
  0
VERTEX
  8
0
 10
9.33464
 20
22.9685
 30
0.0
 40
0
 41
0
  0
VERTEX
  8
0
 10
9.31663
 20
22.9361
 30
0.0
 40
0
 41
0
  0
VERTEX
  8
0
 10
9.31278
 20
22.9246
 30
0.0
 40
0
 41
0
  0
VERTEX
  8
0
 10
9.30865
 20
22.9246
 30
0.0
 40
0
 41
0
  0
VERTEX
  8
0
 10
9.30583
 20
23.0196
 30
0.0
 40
0
 41
0
  0
VERTEX
  8
0
 10
9.22879
 20
23.0196
 30
0.0
 40
0
 41
0
  0
VERTEX
  8
0
 10
9.22954
 20
23.0083
 30
0.0
 40
0
 41
0
  0
VERTEX
  8
0
 10
9.23188
 20
22.9486
 30
0.0
 40
0
 41
0
  0
VERTEX
  8
0
 10
9.23269
 20
22.8886
 30
0.0
 40
0
 41
0
  0
VERTEX
  8
0
 10
9.23269
 20
22.8686
 30
0.0
 40
0
 41
0
  0
VERTEX
  8
0
 10
9.23269
 20
22.5357
 30
0.0
 40
0
 41
0
  0
SEQEND
 8
0
  0
POLYLINE
  8
0
 62
     0
 66
     1
 10
0
 20
0
 30
0.0
 70
     1
 40
0
 41
0
  0
VERTEX
  8
0
 10
9.75478
 20
23.0306
 30
0.0
 40
0
 41
0
  0
VERTEX
  8
0
 10
9.73122
 20
23.0306
 30
0.0
 40
0
 41
0
  0
VERTEX
  8
0
 10
9.66064
 20
23.0132
 30
0.0
 40
0
 41
0
  0
VERTEX
  8
0
 10
9.58447
 20
22.9628
 30
0.0
 40
0
 41
0
  0
VERTEX
  8
0
 10
9.53336
 20
22.8821
 30
0.0
 40
0
 41
0
  0
VERTEX
  8
0
 10
9.51476
 20
22.8007
 30
0.0
 40
0
 41
0
  0
VERTEX
  8
0
 10
9.51476
 20
22.7736
 30
0.0
 40
0
 41
0
  0
VERTEX
  8
0
 10
9.51476
 20
22.7478
 30
0.0
 40
0
 41
0
  0
VERTEX
  8
0
 10
9.53256
 20
22.6703
 30
0.0
 40
0
 41
0
  0
VERTEX
  8
0
 10
9.5816
 20
22.5918
 30
0.0
 40
0
 41
0
  0
VERTEX
  8
0
 10
9.65517
 20
22.5421
 30
0.0
 40
0
 41
0
  0
VERTEX
  8
0
 10
9.72385
 20
22.5246
 30
0.0
 40
0
 41
0
  0
VERTEX
  8
0
 10
9.74675
 20
22.5246
 30
0.0
 40
0
 41
0
  0
VERTEX
  8
0
 10
9.76844
 20
22.5246
 30
0.0
 40
0
 41
0
  0
VERTEX
  8
0
 10
9.83371
 20
22.5397
 30
0.0
 40
0
 41
0
  0
VERTEX
  8
0
 10
9.91103
 20
22.5861
 30
0.0
 40
0
 41
0
  0
VERTEX
  8
0
 10
9.96642
 20
22.666
 30
0.0
 40
0
 41
0
  0
VERTEX
  8
0
 10
9.98763
 20
22.7528
 30
0.0
 40
0
 41
0
  0
VERTEX
  8
0
 10
9.98763
 20
22.7815
 30
0.0
 40
0
 41
0
  0
VERTEX
  8
0
 10
9.98763
 20
22.8069
 30
0.0
 40
0
 41
0
  0
VERTEX
  8
0
 10
9.97076
 20
22.8829
 30
0.0
 40
0
 41
0
  0
VERTEX
  8
0
 10
9.92329
 20
22.9615
 30
0.0
 40
0
 41
0
  0
VERTEX
  8
0
 10
9.84972
 20
23.0124
 30
0.0
 40
0
 41
0
  0
VERTEX
  8
0
 10
9.77849
 20
23.0306
 30
0.0
 40
0
 41
0
  0
VERTEX
  8
0
 10
9.75478
 20
23.0306
 30
0.0
 40
0
 41
0
  0
SEQEND
 8
0
  0
POLYLINE
  8
0
 62
     0
 66
     1
 10
0
 20
0
 30
0.0
 70
     1
 40
0
 41
0
  0
VERTEX
  8
0
 10
9.75261
 20
22.9646
 30
0.0
 40
0
 41
0
  0
VERTEX
  8
0
 10
9.76161
 20
22.9646
 30
0.0
 40
0
 41
0
  0
VERTEX
  8
0
 10
9.78874
 20
22.9599
 30
0.0
 40
0
 41
0
  0
VERTEX
  8
0
 10
9.81917
 20
22.9469
 30
0.0
 40
0
 41
0
  0
VERTEX
  8
0
 10
9.84424
 20
22.9274
 30
0.0
 40
0
 41
0
  0
VERTEX
  8
0
 10
9.86415
 20
22.9022
 30
0.0
 40
0
 41
0
  0
VERTEX
  8
0
 10
9.87913
 20
22.8735
 30
0.0
 40
0
 41
0
  0
VERTEX
  8
0
 10
9.88954
 20
22.8422
 30
0.0
 40
0
 41
0
  0
VERTEX
  8
0
 10
9.89556
 20
22.8101
 30
0.0
 40
0
 41
0
  0
VERTEX
  8
0
 10
9.89757
 20
22.7865
 30
0.0
 40
0
 41
0
  0
VERTEX
  8
0
 10
9.89757
 20
22.7785
 30
0.0
 40
0
 41
0
  0
VERTEX
  8
0
 10
9.89757
 20
22.7597
 30
0.0
 40
0
 41
0
  0
VERTEX
  8
0
 10
9.88639
 20
22.7032
 30
0.0
 40
0
 41
0
  0
VERTEX
  8
0
 10
9.85558
 20
22.6437
 30
0.0
 40
0
 41
0
  0
VERTEX
  8
0
 10
9.80903
 20
22.6047
 30
0.0
 40
0
 41
0
  0
VERTEX
  8
0
 10
9.76525
 20
22.5906
 30
0.0
 40
0
 41
0
  0
VERTEX
  8
0
 10
9.75065
 20
22.5906
 30
0.0
 40
0
 41
0
  0
VERTEX
  8
0
 10
9.73583
 20
22.5906
 30
0.0
 40
0
 41
0
  0
VERTEX
  8
0
 10
9.6914
 20
22.6049
 30
0.0
 40
0
 41
0
  0
VERTEX
  8
0
 10
9.64497
 20
22.6439
 30
0.0
 40
0
 41
0
  0
VERTEX
  8
0
 10
9.61458
 20
22.7029
 30
0.0
 40
0
 41
0
  0
VERTEX
  8
0
 10
9.60374
 20
22.7582
 30
0.0
 40
0
 41
0
  0
VERTEX
  8
0
 10
9.60374
 20
22.7765
 30
0.0
 40
0
 41
0
  0
VERTEX
  8
0
 10
9.60374
 20
22.7853
 30
0.0
 40
0
 41
0
  0
VERTEX
  8
0
 10
9.60585
 20
22.8111
 30
0.0
 40
0
 41
0
  0
VERTEX
  8
0
 10
9.61236
 20
22.8447
 30
0.0
 40
0
 41
0
  0
VERTEX
  8
0
 10
9.62343
 20
22.8765
 30
0.0
 40
0
 41
0
  0
VERTEX
  8
0
 10
9.63917
 20
22.905
 30
0.0
 40
0
 41
0
  0
VERTEX
  8
0
 10
9.65978
 20
22.9293
 30
0.0
 40
0
 41
0
  0
VERTEX
  8
0
 10
9.68544
 20
22.9482
 30
0.0
 40
0
 41
0
  0
VERTEX
  8
0
 10
9.71631
 20
22.9603
 30
0.0
 40
0
 41
0
  0
VERTEX
  8
0
 10
9.74349
 20
22.9646
 30
0.0
 40
0
 41
0
  0
VERTEX
  8
0
 10
9.75261
 20
22.9646
 30
0.0
 40
0
 41
0
  0
SEQEND
 8
0
  0
POLYLINE
  8
0
 62
     0
 66
     1
 10
0
 20
0
 30
0.0
 70
     1
 40
0
 41
0
  0
VERTEX
  8
0
 10
10.3137
 20
22.5357
 30
0.0
 40
0
 41
0
  0
VERTEX
  8
0
 10
10.4007
 20
22.5357
 30
0.0
 40
0
 41
0
  0
VERTEX
  8
0
 10
10.4007
 20
22.8276
 30
0.0
 40
0
 41
0
  0
VERTEX
  8
0
 10
10.4828
 20
22.8276
 30
0.0
 40
0
 41
0
  0
VERTEX
  8
0
 10
10.4957
 20
22.8271
 30
0.0
 40
0
 41
0
  0
VERTEX
  8
0
 10
10.5343
 20
22.8189
 30
0.0
 40
0
 41
0
  0
VERTEX
  8
0
 10
10.5723
 20
22.7958
 30
0.0
 40
0
 41
0
  0
VERTEX
  8
0
 10
10.5992
 20
22.756
 30
0.0
 40
0
 41
0
  0
VERTEX
  8
0
 10
10.6144
 20
22.7118
 30
0.0
 40
0
 41
0
  0
VERTEX
  8
0
 10
10.6177
 20
22.6967
 30
0.0
 40
0
 41
0
  0
VERTEX
  8
0
 10
10.621
 20
22.6822
 30
0.0
 40
0
 41
0
  0
VERTEX
  8
0
 10
10.6311
 20
22.6389
 30
0.0
 40
0
 41
0
  0
VERTEX
  8
0
 10
10.6431
 20
22.5919
 30
0.0
 40
0
 41
0
  0
VERTEX
  8
0
 10
10.6536
 20
22.5571
 30
0.0
 40
0
 41
0
  0
VERTEX
  8
0
 10
10.6599
 20
22.5404
 30
0.0
 40
0
 41
0
  0
VERTEX
  8
0
 10
10.6627
 20
22.5357
 30
0.0
 40
0
 41
0
  0
VERTEX
  8
0
 10
10.7527
 20
22.5357
 30
0.0
 40
0
 41
0
  0
VERTEX
  8
0
 10
10.7493
 20
22.5421
 30
0.0
 40
0
 41
0
  0
VERTEX
  8
0
 10
10.7417
 20
22.5624
 30
0.0
 40
0
 41
0
  0
VERTEX
  8
0
 10
10.7296
 20
22.6026
 30
0.0
 40
0
 41
0
  0
VERTEX
  8
0
 10
10.716
 20
22.6557
 30
0.0
 40
0
 41
0
  0
VERTEX
  8
0
 10
10.7044
 20
22.7044
 30
0.0
 40
0
 41
0
  0
VERTEX
  8
0
 10
10.7006
 20
22.7206
 30
0.0
 40
0
 41
0
  0
VERTEX
  8
0
 10
10.6978
 20
22.7329
 30
0.0
 40
0
 41
0
  0
VERTEX
  8
0
 10
10.6857
 20
22.7689
 30
0.0
 40
0
 41
0
  0
VERTEX
  8
0
 10
10.6646
 20
22.8082
 30
0.0
 40
0
 41
0
  0
VERTEX
  8
0
 10
10.6367
 20
22.8376
 30
0.0
 40
0
 41
0
  0
VERTEX
  8
0
 10
10.6109
 20
22.8535
 30
0.0
 40
0
 41
0
  0
VERTEX
  8
0
 10
10.6017
 20
22.8567
 30
0.0
 40
0
 41
0
  0
VERTEX
  8
0
 10
10.6017
 20
22.8597
 30
0.0
 40
0
 41
0
  0
VERTEX
  8
0
 10
10.6146
 20
22.864
 30
0.0
 40
0
 41
0
  0
VERTEX
  8
0
 10
10.6514
 20
22.8842
 30
0.0
 40
0
 41
0
  0
VERTEX
  8
0
 10
10.6917
 20
22.9212
 30
0.0
 40
0
 41
0
  0
VERTEX
  8
0
 10
10.7188
 20
22.9706
 30
0.0
 40
0
 41
0
  0
VERTEX
  8
0
 10
10.7286
 20
23.0164
 30
0.0
 40
0
 41
0
  0
VERTEX
  8
0
 10
10.7286
 20
23.0315
 30
0.0
 40
0
 41
0
  0
VERTEX
  8
0
 10
10.7286
 20
23.0496
 30
0.0
 40
0
 41
0
  0
VERTEX
  8
0
 10
10.7148
 20
23.1039
 30
0.0
 40
0
 41
0
  0
VERTEX
  8
0
 10
10.6841
 20
23.1521
 30
0.0
 40
0
 41
0
  0
VERTEX
  8
0
 10
10.6757
 20
23.1596
 30
0.0
 40
0
 41
0
  0
VERTEX
  8
0
 10
10.6678
 20
23.1668
 30
0.0
 40
0
 41
0
  0
VERTEX
  8
0
 10
10.6405
 20
23.1843
 30
0.0
 40
0
 41
0
  0
VERTEX
  8
0
 10
10.5972
 20
23.2014
 30
0.0
 40
0
 41
0
  0
VERTEX
  8
0
 10
10.5444
 20
23.2112
 30
0.0
 40
0
 41
0
  0
VERTEX
  8
0
 10
10.4965
 20
23.2146
 30
0.0
 40
0
 41
0
  0
VERTEX
  8
0
 10
10.4806
 20
23.2146
 30
0.0
 40
0
 41
0
  0
VERTEX
  8
0
 10
10.4582
 20
23.2146
 30
0.0
 40
0
 41
0
  0
VERTEX
  8
0
 10
10.3912
 20
23.211
 30
0.0
 40
0
 41
0
  0
VERTEX
  8
0
 10
10.3247
 20
23.2029
 30
0.0
 40
0
 41
0
  0
VERTEX
  8
0
 10
10.3137
 20
23.2007
 30
0.0
 40
0
 41
0
  0
VERTEX
  8
0
 10
10.3137
 20
22.5357
 30
0.0
 40
0
 41
0
  0
SEQEND
 8
0
  0
POLYLINE
  8
0
 62
     0
 66
     1
 10
0
 20
0
 30
0.0
 70
     1
 40
0
 41
0
  0
VERTEX
  8
0
 10
10.4007
 20
23.1396
 30
0.0
 40
0
 41
0
  0
VERTEX
  8
0
 10
10.4042
 20
23.1407
 30
0.0
 40
0
 41
0
  0
VERTEX
  8
0
 10
10.4332
 20
23.145
 30
0.0
 40
0
 41
0
  0
VERTEX
  8
0
 10
10.4732
 20
23.1475
 30
0.0
 40
0
 41
0
  0
VERTEX
  8
0
 10
10.4867
 20
23.1475
 30
0.0
 40
0
 41
0
  0
VERTEX
  8
0
 10
10.5024
 20
23.1474
 30
0.0
 40
0
 41
0
  0
VERTEX
  8
0
 10
10.5496
 20
23.1397
 30
0.0
 40
0
 41
0
  0
VERTEX
  8
0
 10
10.5986
 20
23.1168
 30
0.0
 40
0
 41
0
  0
VERTEX
  8
0
 10
10.6303
 20
23.0779
 30
0.0
 40
0
 41
0
  0
VERTEX
  8
0
 10
10.6416
 20
23.0357
 30
0.0
 40
0
 41
0
  0
VERTEX
  8
0
 10
10.6416
 20
23.0215
 30
0.0
 40
0
 41
0
  0
VERTEX
  8
0
 10
10.6416
 20
23.0085
 30
0.0
 40
0
 41
0
  0
VERTEX
  8
0
 10
10.6309
 20
22.9692
 30
0.0
 40
0
 41
0
  0
VERTEX
  8
0
 10
10.6005
 20
22.9288
 30
0.0
 40
0
 41
0
  0
VERTEX
  8
0
 10
10.5526
 20
22.9028
 30
0.0
 40
0
 41
0
  0
VERTEX
  8
0
 10
10.5054
 20
22.8936
 30
0.0
 40
0
 41
0
  0
VERTEX
  8
0
 10
10.4897
 20
22.8936
 30
0.0
 40
0
 41
0
  0
VERTEX
  8
0
 10
10.4007
 20
22.8936
 30
0.0
 40
0
 41
0
  0
VERTEX
  8
0
 10
10.4007
 20
23.1396
 30
0.0
 40
0
 41
0
  0
SEQEND
 8
0
  0
POLYLINE
  8
0
 62
     0
 66
     1
 10
0
 20
0
 30
0.0
 70
     1
 40
0
 41
0
  0
VERTEX
  8
0
 10
11.2415
 20
22.7617
 30
0.0
 40
0
 41
0
  0
VERTEX
  8
0
 10
11.2418
 20
22.7639
 30
0.0
 40
0
 41
0
  0
VERTEX
  8
0
 10
11.2445
 20
22.7929
 30
0.0
 40
0
 41
0
  0
VERTEX
  8
0
 10
11.2445
 20
22.8026
 30
0.0
 40
0
 41
0
  0
VERTEX
  8
0
 10
11.2445
 20
22.821
 30
0.0
 40
0
 41
0
  0
VERTEX
  8
0
 10
11.2355
 20
22.8758
 30
0.0
 40
0
 41
0
  0
VERTEX
  8
0
 10
11.2038
 20
22.9499
 30
0.0
 40
0
 41
0
  0
VERTEX
  8
0
 10
11.1425
 20
23.0075
 30
0.0
 40
0
 41
0
  0
VERTEX
  8
0
 10
11.0691
 20
23.0306
 30
0.0
 40
0
 41
0
  0
VERTEX
  8
0
 10
11.0447
 20
23.0306
 30
0.0
 40
0
 41
0
  0
VERTEX
  8
0
 10
11.0209
 20
23.0306
 30
0.0
 40
0
 41
0
  0
VERTEX
  8
0
 10
10.9497
 20
23.0103
 30
0.0
 40
0
 41
0
  0
VERTEX
  8
0
 10
10.8783
 20
22.9549
 30
0.0
 40
0
 41
0
  0
VERTEX
  8
0
 10
10.8333
 20
22.8721
 30
0.0
 40
0
 41
0
  0
VERTEX
  8
0
 10
10.8177
 20
22.7953
 30
0.0
 40
0
 41
0
  0
VERTEX
  8
0
 10
10.8177
 20
22.7696
 30
0.0
 40
0
 41
0
  0
VERTEX
  8
0
 10
10.8177
 20
22.7447
 30
0.0
 40
0
 41
0
  0
VERTEX
  8
0
 10
10.8339
 20
22.6699
 30
0.0
 40
0
 41
0
  0
VERTEX
  8
0
 10
10.8808
 20
22.5929
 30
0.0
 40
0
 41
0
  0
VERTEX
  8
0
 10
10.9555
 20
22.5433
 30
0.0
 40
0
 41
0
  0
VERTEX
  8
0
 10
11.0305
 20
22.5257
 30
0.0
 40
0
 41
0
  0
VERTEX
  8
0
 10
11.0555
 20
22.5257
 30
0.0
 40
0
 41
0
  0
VERTEX
  8
0
 10
11.0688
 20
22.5257
 30
0.0
 40
0
 41
0
  0
VERTEX
  8
0
 10
11.1088
 20
22.5285
 30
0.0
 40
0
 41
0
  0
VERTEX
  8
0
 10
11.1533
 20
22.5354
 30
0.0
 40
0
 41
0
  0
VERTEX
  8
0
 10
11.1891
 20
22.5451
 30
0.0
 40
0
 41
0
  0
VERTEX
  8
0
 10
11.2098
 20
22.5526
 30
0.0
 40
0
 41
0
  0
VERTEX
  8
0
 10
11.2165
 20
22.5557
 30
0.0
 40
0
 41
0
  0
VERTEX
  8
0
 10
11.2016
 20
22.6186
 30
0.0
 40
0
 41
0
  0
VERTEX
  8
0
 10
11.1933
 20
22.6151
 30
0.0
 40
0
 41
0
  0
VERTEX
  8
0
 10
11.1458
 20
22.601
 30
0.0
 40
0
 41
0
  0
VERTEX
  8
0
 10
11.0872
 20
22.5936
 30
0.0
 40
0
 41
0
  0
VERTEX
  8
0
 10
11.0677
 20
22.5936
 30
0.0
 40
0
 41
0
  0
VERTEX
  8
0
 10
11.0519
 20
22.5936
 30
0.0
 40
0
 41
0
  0
VERTEX
  8
0
 10
11.0048
 20
22.6032
 30
0.0
 40
0
 41
0
  0
VERTEX
  8
0
 10
10.9523
 20
22.6331
 30
0.0
 40
0
 41
0
  0
VERTEX
  8
0
 10
10.916
 20
22.6853
 30
0.0
 40
0
 41
0
  0
VERTEX
  8
0
 10
10.9019
 20
22.7425
 30
0.0
 40
0
 41
0
  0
VERTEX
  8
0
 10
10.9016
 20
22.7617
 30
0.0
 40
0
 41
0
  0
VERTEX
  8
0
 10
11.2415
 20
22.7617
 30
0.0
 40
0
 41
0
  0
SEQEND
 8
0
  0
POLYLINE
  8
0
 62
     0
 66
     1
 10
0
 20
0
 30
0.0
 70
     1
 40
0
 41
0
  0
VERTEX
  8
0
 10
10.9027
 20
22.8246
 30
0.0
 40
0
 41
0
  0
VERTEX
  8
0
 10
10.9041
 20
22.8368
 30
0.0
 40
0
 41
0
  0
VERTEX
  8
0
 10
10.9142
 20
22.8726
 30
0.0
 40
0
 41
0
  0
VERTEX
  8
0
 10
10.9395
 20
22.9189
 30
0.0
 40
0
 41
0
  0
VERTEX
  8
0
 10
10.98
 20
22.9539
 30
0.0
 40
0
 41
0
  0
VERTEX
  8
0
 10
11.0233
 20
22.9675
 30
0.0
 40
0
 41
0
  0
VERTEX
  8
0
 10
11.0377
 20
22.9675
 30
0.0
 40
0
 41
0
  0
VERTEX
  8
0
 10
11.0461
 20
22.9675
 30
0.0
 40
0
 41
0
  0
VERTEX
  8
0
 10
11.0713
 20
22.9638
 30
0.0
 40
0
 41
0
  0
VERTEX
  8
0
 10
11.0986
 20
22.9532
 30
0.0
 40
0
 41
0
  0
VERTEX
  8
0
 10
11.12
 20
22.9371
 30
0.0
 40
0
 41
0
  0
VERTEX
  8
0
 10
11.1361
 20
22.9171
 30
0.0
 40
0
 41
0
  0
VERTEX
  8
0
 10
11.1475
 20
22.8944
 30
0.0
 40
0
 41
0
  0
VERTEX
  8
0
 10
11.1549
 20
22.8706
 30
0.0
 40
0
 41
0
  0
VERTEX
  8
0
 10
11.1587
 20
22.8468
 30
0.0
 40
0
 41
0
  0
VERTEX
  8
0
 10
11.1597
 20
22.8301
 30
0.0
 40
0
 41
0
  0
VERTEX
  8
0
 10
11.1597
 20
22.8246
 30
0.0
 40
0
 41
0
  0
VERTEX
  8
0
 10
10.9027
 20
22.8246
 30
0.0
 40
0
 41
0
  0
SEQEND
 8
0
  0
POLYLINE
  8
0
 62
     0
 66
     1
 10
0
 20
0
 30
0.0
 70
     1
 40
0
 41
0
  0
VERTEX
  8
0
 10
11.2937
 20
23.0196
 30
0.0
 40
0
 41
0
  0
VERTEX
  8
0
 10
11.4777
 20
22.5357
 30
0.0
 40
0
 41
0
  0
VERTEX
  8
0
 10
11.5617
 20
22.5357
 30
0.0
 40
0
 41
0
  0
VERTEX
  8
0
 10
11.7516
 20
23.0196
 30
0.0
 40
0
 41
0
  0
VERTEX
  8
0
 10
11.6596
 20
23.0196
 30
0.0
 40
0
 41
0
  0
VERTEX
  8
0
 10
11.5656
 20
22.7478
 30
0.0
 40
0
 41
0
  0
VERTEX
  8
0
 10
11.5616
 20
22.7367
 30
0.0
 40
0
 41
0
  0
VERTEX
  8
0
 10
11.5273
 20
22.6336
 30
0.0
 40
0
 41
0
  0
VERTEX
  8
0
 10
11.5246
 20
22.6236
 30
0.0
 40
0
 41
0
  0
VERTEX
  8
0
 10
11.5215
 20
22.6236
 30
0.0
 40
0
 41
0
  0
VERTEX
  8
0
 10
11.519
 20
22.6336
 30
0.0
 40
0
 41
0
  0
VERTEX
  8
0
 10
11.4867
 20
22.7367
 30
0.0
 40
0
 41
0
  0
VERTEX
  8
0
 10
11.4827
 20
22.7478
 30
0.0
 40
0
 41
0
  0
VERTEX
  8
0
 10
11.3876
 20
23.0196
 30
0.0
 40
0
 41
0
  0
VERTEX
  8
0
 10
11.2937
 20
23.0196
 30
0.0
 40
0
 41
0
  0
SEQEND
 8
0
  0
POLYLINE
  8
0
 62
     0
 66
     1
 10
0
 20
0
 30
0.0
 70
     1
 40
0
 41
0
  0
VERTEX
  8
0
 10
12.2134
 20
22.7617
 30
0.0
 40
0
 41
0
  0
VERTEX
  8
0
 10
12.2137
 20
22.7639
 30
0.0
 40
0
 41
0
  0
VERTEX
  8
0
 10
12.2165
 20
22.7929
 30
0.0
 40
0
 41
0
  0
VERTEX
  8
0
 10
12.2165
 20
22.8026
 30
0.0
 40
0
 41
0
  0
VERTEX
  8
0
 10
12.2165
 20
22.821
 30
0.0
 40
0
 41
0
  0
VERTEX
  8
0
 10
12.2074
 20
22.8758
 30
0.0
 40
0
 41
0
  0
VERTEX
  8
0
 10
12.1758
 20
22.9499
 30
0.0
 40
0
 41
0
  0
VERTEX
  8
0
 10
12.1145
 20
23.0075
 30
0.0
 40
0
 41
0
  0
VERTEX
  8
0
 10
12.0411
 20
23.0306
 30
0.0
 40
0
 41
0
  0
VERTEX
  8
0
 10
12.0166
 20
23.0306
 30
0.0
 40
0
 41
0
  0
VERTEX
  8
0
 10
11.9928
 20
23.0306
 30
0.0
 40
0
 41
0
  0
VERTEX
  8
0
 10
11.9216
 20
23.0103
 30
0.0
 40
0
 41
0
  0
VERTEX
  8
0
 10
11.8502
 20
22.9549
 30
0.0
 40
0
 41
0
  0
VERTEX
  8
0
 10
11.8052
 20
22.8721
 30
0.0
 40
0
 41
0
  0
VERTEX
  8
0
 10
11.7896
 20
22.7953
 30
0.0
 40
0
 41
0
  0
VERTEX
  8
0
 10
11.7896
 20
22.7696
 30
0.0
 40
0
 41
0
  0
VERTEX
  8
0
 10
11.7896
 20
22.7447
 30
0.0
 40
0
 41
0
  0
VERTEX
  8
0
 10
11.8058
 20
22.6699
 30
0.0
 40
0
 41
0
  0
VERTEX
  8
0
 10
11.8527
 20
22.5929
 30
0.0
 40
0
 41
0
  0
VERTEX
  8
0
 10
11.9275
 20
22.5433
 30
0.0
 40
0
 41
0
  0
VERTEX
  8
0
 10
12.0024
 20
22.5257
 30
0.0
 40
0
 41
0
  0
VERTEX
  8
0
 10
12.0275
 20
22.5257
 30
0.0
 40
0
 41
0
  0
VERTEX
  8
0
 10
12.0408
 20
22.5257
 30
0.0
 40
0
 41
0
  0
VERTEX
  8
0
 10
12.0807
 20
22.5285
 30
0.0
 40
0
 41
0
  0
VERTEX
  8
0
 10
12.1252
 20
22.5354
 30
0.0
 40
0
 41
0
  0
VERTEX
  8
0
 10
12.161
 20
22.5451
 30
0.0
 40
0
 41
0
  0
VERTEX
  8
0
 10
12.1818
 20
22.5526
 30
0.0
 40
0
 41
0
  0
VERTEX
  8
0
 10
12.1885
 20
22.5557
 30
0.0
 40
0
 41
0
  0
VERTEX
  8
0
 10
12.1735
 20
22.6186
 30
0.0
 40
0
 41
0
  0
VERTEX
  8
0
 10
12.1653
 20
22.6151
 30
0.0
 40
0
 41
0
  0
VERTEX
  8
0
 10
12.1178
 20
22.601
 30
0.0
 40
0
 41
0
  0
VERTEX
  8
0
 10
12.0591
 20
22.5936
 30
0.0
 40
0
 41
0
  0
VERTEX
  8
0
 10
12.0396
 20
22.5936
 30
0.0
 40
0
 41
0
  0
VERTEX
  8
0
 10
12.0239
 20
22.5936
 30
0.0
 40
0
 41
0
  0
VERTEX
  8
0
 10
11.9767
 20
22.6032
 30
0.0
 40
0
 41
0
  0
VERTEX
  8
0
 10
11.9243
 20
22.6331
 30
0.0
 40
0
 41
0
  0
VERTEX
  8
0
 10
11.8879
 20
22.6853
 30
0.0
 40
0
 41
0
  0
VERTEX
  8
0
 10
11.8739
 20
22.7425
 30
0.0
 40
0
 41
0
  0
VERTEX
  8
0
 10
11.8736
 20
22.7617
 30
0.0
 40
0
 41
0
  0
VERTEX
  8
0
 10
12.2134
 20
22.7617
 30
0.0
 40
0
 41
0
  0
SEQEND
 8
0
  0
POLYLINE
  8
0
 62
     0
 66
     1
 10
0
 20
0
 30
0.0
 70
     1
 40
0
 41
0
  0
VERTEX
  8
0
 10
11.8747
 20
22.8246
 30
0.0
 40
0
 41
0
  0
VERTEX
  8
0
 10
11.876
 20
22.8368
 30
0.0
 40
0
 41
0
  0
VERTEX
  8
0
 10
11.8862
 20
22.8726
 30
0.0
 40
0
 41
0
  0
VERTEX
  8
0
 10
11.9114
 20
22.9189
 30
0.0
 40
0
 41
0
  0
VERTEX
  8
0
 10
11.952
 20
22.9539
 30
0.0
 40
0
 41
0
  0
VERTEX
  8
0
 10
11.9952
 20
22.9675
 30
0.0
 40
0
 41
0
  0
VERTEX
  8
0
 10
12.0097
 20
22.9675
 30
0.0
 40
0
 41
0
  0
VERTEX
  8
0
 10
12.0181
 20
22.9675
 30
0.0
 40
0
 41
0
  0
VERTEX
  8
0
 10
12.0433
 20
22.9638
 30
0.0
 40
0
 41
0
  0
VERTEX
  8
0
 10
12.0706
 20
22.9532
 30
0.0
 40
0
 41
0
  0
VERTEX
  8
0
 10
12.092
 20
22.9371
 30
0.0
 40
0
 41
0
  0
VERTEX
  8
0
 10
12.1081
 20
22.9171
 30
0.0
 40
0
 41
0
  0
VERTEX
  8
0
 10
12.1195
 20
22.8944
 30
0.0
 40
0
 41
0
  0
VERTEX
  8
0
 10
12.1268
 20
22.8706
 30
0.0
 40
0
 41
0
  0
VERTEX
  8
0
 10
12.1306
 20
22.8468
 30
0.0
 40
0
 41
0
  0
VERTEX
  8
0
 10
12.1317
 20
22.8301
 30
0.0
 40
0
 41
0
  0
VERTEX
  8
0
 10
12.1316
 20
22.8246
 30
0.0
 40
0
 41
0
  0
VERTEX
  8
0
 10
11.8747
 20
22.8246
 30
0.0
 40
0
 41
0
  0
SEQEND
 8
0
  0
POLYLINE
  8
0
 62
     0
 66
     1
 10
0
 20
0
 30
0.0
 70
     1
 40
0
 41
0
  0
VERTEX
  8
0
 10
12.6734
 20
22.5357
 30
0.0
 40
0
 41
0
  0
VERTEX
  8
0
 10
12.6719
 20
22.5439
 30
0.0
 40
0
 41
0
  0
VERTEX
  8
0
 10
12.6673
 20
22.5903
 30
0.0
 40
0
 41
0
  0
VERTEX
  8
0
 10
12.6656
 20
22.6363
 30
0.0
 40
0
 41
0
  0
VERTEX
  8
0
 10
12.6656
 20
22.6515
 30
0.0
 40
0
 41
0
  0
VERTEX
  8
0
 10
12.6656
 20
22.8326
 30
0.0
 40
0
 41
0
  0
VERTEX
  8
0
 10
12.6656
 20
22.8417
 30
0.0
 40
0
 41
0
  0
VERTEX
  8
0
 10
12.6637
 20
22.869
 30
0.0
 40
0
 41
0
  0
VERTEX
  8
0
 10
12.6576
 20
22.9044
 30
0.0
 40
0
 41
0
  0
VERTEX
  8
0
 10
12.6464
 20
22.9378
 30
0.0
 40
0
 41
0
  0
VERTEX
  8
0
 10
12.6291
 20
22.9679
 30
0.0
 40
0
 41
0
  0
VERTEX
  8
0
 10
12.6048
 20
22.9935
 30
0.0
 40
0
 41
0
  0
VERTEX
  8
0
 10
12.5727
 20
23.0132
 30
0.0
 40
0
 41
0
  0
VERTEX
  8
0
 10
12.5319
 20
23.026
 30
0.0
 40
0
 41
0
  0
VERTEX
  8
0
 10
12.4941
 20
23.0306
 30
0.0
 40
0
 41
0
  0
VERTEX
  8
0
 10
12.4816
 20
23.0306
 30
0.0
 40
0
 41
0
  0
VERTEX
  8
0
 10
12.4597
 20
23.0306
 30
0.0
 40
0
 41
0
  0
VERTEX
  8
0
 10
12.3942
 20
23.0187
 30
0.0
 40
0
 41
0
  0
VERTEX
  8
0
 10
12.3325
 20
22.994
 30
0.0
 40
0
 41
0
  0
VERTEX
  8
0
 10
12.3225
 20
22.9875
 30
0.0
 40
0
 41
0
  0
VERTEX
  8
0
 10
12.3427
 20
22.9296
 30
0.0
 40
0
 41
0
  0
VERTEX
  8
0
 10
12.3511
 20
22.935
 30
0.0
 40
0
 41
0
  0
VERTEX
  8
0
 10
12.4014
 20
22.9558
 30
0.0
 40
0
 41
0
  0
VERTEX
  8
0
 10
12.4517
 20
22.9656
 30
0.0
 40
0
 41
0
  0
VERTEX
  8
0
 10
12.4685
 20
22.9656
 30
0.0
 40
0
 41
0
  0
VERTEX
  8
0
 10
12.4768
 20
22.9656
 30
0.0
 40
0
 41
0
  0
VERTEX
  8
0
 10
12.5016
 20
22.9625
 30
0.0
 40
0
 41
0
  0
VERTEX
  8
0
 10
12.5275
 20
22.9538
 30
0.0
 40
0
 41
0
  0
VERTEX
  8
0
 10
12.5468
 20
22.9407
 30
0.0
 40
0
 41
0
  0
VERTEX
  8
0
 10
12.5607
 20
22.9246
 30
0.0
 40
0
 41
0
  0
VERTEX
  8
0
 10
12.5698
 20
22.9067
 30
0.0
 40
0
 41
0
  0
VERTEX
  8
0
 10
12.5753
 20
22.8879
 30
0.0
 40
0
 41
0
  0
VERTEX
  8
0
 10
12.5778
 20
22.8699
 30
0.0
 40
0
 41
0
  0
VERTEX
  8
0
 10
12.5786
 20
22.8576
 30
0.0
 40
0
 41
0
  0
VERTEX
  8
0
 10
12.5786
 20
22.8536
 30
0.0
 40
0
 41
0
  0
VERTEX
  8
0
 10
12.5786
 20
22.8436
 30
0.0
 40
0
 41
0
  0
VERTEX
  8
0
 10
12.5475
 20
22.8439
 30
0.0
 40
0
 41
0
  0
VERTEX
  8
0
 10
12.4542
 20
22.8325
 30
0.0
 40
0
 41
0
  0
VERTEX
  8
0
 10
12.3629
 20
22.7979
 30
0.0
 40
0
 41
0
  0
VERTEX
  8
0
 10
12.3067
 20
22.7414
 30
0.0
 40
0
 41
0
  0
VERTEX
  8
0
 10
12.2875
 20
22.6832
 30
0.0
 40
0
 41
0
  0
VERTEX
  8
0
 10
12.2875
 20
22.6638
 30
0.0
 40
0
 41
0
  0
VERTEX
  8
0
 10
12.2875
 20
22.651
 30
0.0
 40
0
 41
0
  0
VERTEX
  8
0
 10
12.2969
 20
22.6125
 30
0.0
 40
0
 41
0
  0
VERTEX
  8
0
 10
12.3248
 20
22.5679
 30
0.0
 40
0
 41
0
  0
VERTEX
  8
0
 10
12.3711
 20
22.5365
 30
0.0
 40
0
 41
0
  0
VERTEX
  8
0
 10
12.4194
 20
22.5246
 30
0.0
 40
0
 41
0
  0
VERTEX
  8
0
 10
12.4355
 20
22.5246
 30
0.0
 40
0
 41
0
  0
VERTEX
  8
0
 10
12.4476
 20
22.5246
 30
0.0
 40
0
 41
0
  0
VERTEX
  8
0
 10
12.4839
 20
22.5306
 30
0.0
 40
0
 41
0
  0
VERTEX
  8
0
 10
12.5252
 20
22.5464
 30
0.0
 40
0
 41
0
  0
VERTEX
  8
0
 10
12.5587
 20
22.5694
 30
0.0
 40
0
 41
0
  0
VERTEX
  8
0
 10
12.5782
 20
22.5893
 30
0.0
 40
0
 41
0
  0
VERTEX
  8
0
 10
12.5836
 20
22.5967
 30
0.0
 40
0
 41
0
  0
VERTEX
  8
0
 10
12.5866
 20
22.5967
 30
0.0
 40
0
 41
0
  0
VERTEX
  8
0
 10
12.5935
 20
22.5357
 30
0.0
 40
0
 41
0
  0
VERTEX
  8
0
 10
12.6734
 20
22.5357
 30
0.0
 40
0
 41
0
  0
SEQEND
 8
0
  0
POLYLINE
  8
0
 62
     0
 66
     1
 10
0
 20
0
 30
0.0
 70
     1
 40
0
 41
0
  0
VERTEX
  8
0
 10
12.5805
 20
22.6986
 30
0.0
 40
0
 41
0
  0
VERTEX
  8
0
 10
12.5805
 20
22.6917
 30
0.0
 40
0
 41
0
  0
VERTEX
  8
0
 10
12.5763
 20
22.6729
 30
0.0
 40
0
 41
0
  0
VERTEX
  8
0
 10
12.5755
 20
22.6707
 30
0.0
 40
0
 41
0
  0
VERTEX
  8
0
 10
12.5729
 20
22.6628
 30
0.0
 40
0
 41
0
  0
VERTEX
  8
0
 10
12.5602
 20
22.6407
 30
0.0
 40
0
 41
0
  0
VERTEX
  8
0
 10
12.5354
 20
22.6149
 30
0.0
 40
0
 41
0
  0
VERTEX
  8
0
 10
12.5014
 20
22.5967
 30
0.0
 40
0
 41
0
  0
VERTEX
  8
0
 10
12.4692
 20
22.5897
 30
0.0
 40
0
 41
0
  0
VERTEX
  8
0
 10
12.4586
 20
22.5897
 30
0.0
 40
0
 41
0
  0
VERTEX
  8
0
 10
12.4505
 20
22.5897
 30
0.0
 40
0
 41
0
  0
VERTEX
  8
0
 10
12.4266
 20
22.5949
 30
0.0
 40
0
 41
0
  0
VERTEX
  8
0
 10
12.4002
 20
22.6104
 30
0.0
 40
0
 41
0
  0
VERTEX
  8
0
 10
12.3823
 20
22.6365
 30
0.0
 40
0
 41
0
  0
VERTEX
  8
0
 10
12.3757
 20
22.6644
 30
0.0
 40
0
 41
0
  0
VERTEX
  8
0
 10
12.3757
 20
22.6738
 30
0.0
 40
0
 41
0
  0
VERTEX
  8
0
 10
12.3757
 20
22.6817
 30
0.0
 40
0
 41
0
  0
VERTEX
  8
0
 10
12.3805
 20
22.7056
 30
0.0
 40
0
 41
0
  0
VERTEX
  8
0
 10
12.3942
 20
22.7307
 30
0.0
 40
0
 41
0
  0
VERTEX
  8
0
 10
12.4152
 20
22.75
 30
0.0
 40
0
 41
0
  0
VERTEX
  8
0
 10
12.4421
 20
22.7642
 30
0.0
 40
0
 41
0
  0
VERTEX
  8
0
 10
12.4735
 20
22.7739
 30
0.0
 40
0
 41
0
  0
VERTEX
  8
0
 10
12.508
 20
22.7797
 30
0.0
 40
0
 41
0
  0
VERTEX
  8
0
 10
12.5442
 20
22.7825
 30
0.0
 40
0
 41
0
  0
VERTEX
  8
0
 10
12.5714
 20
22.7829
 30
0.0
 40
0
 41
0
  0
VERTEX
  8
0
 10
12.5805
 20
22.7826
 30
0.0
 40
0
 41
0
  0
VERTEX
  8
0
 10
12.5805
 20
22.6986
 30
0.0
 40
0
 41
0
  0
SEQEND
 8
0
  0
POLYLINE
  8
0
 62
     0
 66
     1
 10
0
 20
0
 30
0.0
 70
     1
 40
0
 41
0
  0
VERTEX
  8
0
 10
12.8075
 20
22.5357
 30
0.0
 40
0
 41
0
  0
VERTEX
  8
0
 10
12.8956
 20
22.5357
 30
0.0
 40
0
 41
0
  0
VERTEX
  8
0
 10
12.8956
 20
23.2456
 30
0.0
 40
0
 41
0
  0
VERTEX
  8
0
 10
12.8075
 20
23.2456
 30
0.0
 40
0
 41
0
  0
VERTEX
  8
0
 10
12.8075
 20
22.5357
 30
0.0
 40
0
 41
0
  0
SEQEND
 8
0
  0
POLYLINE
  8
0
 62
     0
 66
     1
 10
0
 20
0
 30
0.0
 70
     1
 40
0
 41
0
  0
VERTEX
  8
0
 10
13.7383
 20
22.8725
 30
0.0
 40
0
 41
0
  0
VERTEX
  8
0
 10
13.7383
 20
22.9326
 30
0.0
 40
0
 41
0
  0
VERTEX
  8
0
 10
13.2224
 20
22.9326
 30
0.0
 40
0
 41
0
  0
VERTEX
  8
0
 10
13.2224
 20
22.8725
 30
0.0
 40
0
 41
0
  0
VERTEX
  8
0
 10
13.7383
 20
22.8725
 30
0.0
 40
0
 41
0
  0
SEQEND
 8
0
  0
POLYLINE
  8
0
 62
     0
 66
     1
 10
0
 20
0
 30
0.0
 70
     1
 40
0
 41
0
  0
VERTEX
  8
0
 10
13.7383
 20
22.6768
 30
0.0
 40
0
 41
0
  0
VERTEX
  8
0
 10
13.7383
 20
22.7367
 30
0.0
 40
0
 41
0
  0
VERTEX
  8
0
 10
13.2224
 20
22.7367
 30
0.0
 40
0
 41
0
  0
VERTEX
  8
0
 10
13.2224
 20
22.6768
 30
0.0
 40
0
 41
0
  0
VERTEX
  8
0
 10
13.7383
 20
22.6768
 30
0.0
 40
0
 41
0
  0
SEQEND
 8
0
  0
POLYLINE
  8
0
 62
     0
 66
     1
 10
0
 20
0
 30
0.0
 70
     1
 40
0
 41
0
  0
VERTEX
  8
0
 10
14.4503
 20
22.5357
 30
0.0
 40
0
 41
0
  0
VERTEX
  8
0
 10
14.4503
 20
22.6086
 30
0.0
 40
0
 41
0
  0
VERTEX
  8
0
 10
14.1585
 20
22.6086
 30
0.0
 40
0
 41
0
  0
VERTEX
  8
0
 10
14.1585
 20
22.6108
 30
0.0
 40
0
 41
0
  0
VERTEX
  8
0
 10
14.2103
 20
22.6588
 30
0.0
 40
0
 41
0
  0
VERTEX
  8
0
 10
14.2339
 20
22.6815
 30
0.0
 40
0
 41
0
  0
VERTEX
  8
0
 10
14.3031
 20
22.7521
 30
0.0
 40
0
 41
0
  0
VERTEX
  8
0
 10
14.3738
 20
22.8376
 30
0.0
 40
0
 41
0
  0
VERTEX
  8
0
 10
14.4185
 20
22.9211
 30
0.0
 40
0
 41
0
  0
VERTEX
  8
0
 10
14.4343
 20
22.9858
 30
0.0
 40
0
 41
0
  0
VERTEX
  8
0
 10
14.4343
 20
23.0075
 30
0.0
 40
0
 41
0
  0
VERTEX
  8
0
 10
14.4343
 20
23.0163
 30
0.0
 40
0
 41
0
  0
VERTEX
  8
0
 10
14.4314
 20
23.0424
 30
0.0
 40
0
 41
0
  0
VERTEX
  8
0
 10
14.4229
 20
23.0764
 30
0.0
 40
0
 41
0
  0
VERTEX
  8
0
 10
14.4082
 20
23.1082
 30
0.0
 40
0
 41
0
  0
VERTEX
  8
0
 10
14.3874
 20
23.1369
 30
0.0
 40
0
 41
0
  0
VERTEX
  8
0
 10
14.3599
 20
23.1612
 30
0.0
 40
0
 41
0
  0
VERTEX
  8
0
 10
14.3256
 20
23.18
 30
0.0
 40
0
 41
0
  0
VERTEX
  8
0
 10
14.2842
 20
23.1922
 30
0.0
 40
0
 41
0
  0
VERTEX
  8
0
 10
14.2476
 20
23.1965
 30
0.0
 40
0
 41
0
  0
VERTEX
  8
0
 10
14.2354
 20
23.1965
 30
0.0
 40
0
 41
0
  0
VERTEX
  8
0
 10
14.2219
 20
23.1965
 30
0.0
 40
0
 41
0
  0
VERTEX
  8
0
 10
14.1812
 20
23.1915
 30
0.0
 40
0
 41
0
  0
VERTEX
  8
0
 10
14.1321
 20
23.1778
 30
0.0
 40
0
 41
0
  0
VERTEX
  8
0
 10
14.0886
 20
23.1569
 30
0.0
 40
0
 41
0
  0
VERTEX
  8
0
 10
14.06
 20
23.1379
 30
0.0
 40
0
 41
0
  0
VERTEX
  8
0
 10
14.0514
 20
23.1306
 30
0.0
 40
0
 41
0
  0
VERTEX
  8
0
 10
14.0794
 20
23.0685
 30
0.0
 40
0
 41
0
  0
VERTEX
  8
0
 10
14.0856
 20
23.0736
 30
0.0
 40
0
 41
0
  0
VERTEX
  8
0
 10
14.1053
 20
23.0878
 30
0.0
 40
0
 41
0
  0
VERTEX
  8
0
 10
14.1375
 20
23.1054
 30
0.0
 40
0
 41
0
  0
VERTEX
  8
0
 10
14.1751
 20
23.1186
 30
0.0
 40
0
 41
0
  0
VERTEX
  8
0
 10
14.2068
 20
23.1236
 30
0.0
 40
0
 41
0
  0
VERTEX
  8
0
 10
14.2175
 20
23.1236
 30
0.0
 40
0
 41
0
  0
VERTEX
  8
0
 10
14.2326
 20
23.1236
 30
0.0
 40
0
 41
0
  0
VERTEX
  8
0
 10
14.2785
 20
23.1131
 30
0.0
 40
0
 41
0
  0
VERTEX
  8
0
 10
14.3182
 20
23.0849
 30
0.0
 40
0
 41
0
  0
VERTEX
  8
0
 10
14.3399
 20
23.0443
 30
0.0
 40
0
 41
0
  0
VERTEX
  8
0
 10
14.3464
 20
23.0086
 30
0.0
 40
0
 41
0
  0
VERTEX
  8
0
 10
14.3464
 20
22.9967
 30
0.0
 40
0
 41
0
  0
VERTEX
  8
0
 10
14.3461
 20
22.9786
 30
0.0
 40
0
 41
0
  0
VERTEX
  8
0
 10
14.3314
 20
22.9243
 30
0.0
 40
0
 41
0
  0
VERTEX
  8
0
 10
14.2872
 20
22.849
 30
0.0
 40
0
 41
0
  0
VERTEX
  8
0
 10
14.2121
 20
22.7626
 30
0.0
 40
0
 41
0
  0
VERTEX
  8
0
 10
14.1317
 20
22.6826
 30
0.0
 40
0
 41
0
  0
VERTEX
  8
0
 10
14.1044
 20
22.6565
 30
0.0
 40
0
 41
0
  0
VERTEX
  8
0
 10
14.0354
 20
22.5897
 30
0.0
 40
0
 41
0
  0
VERTEX
  8
0
 10
14.0354
 20
22.5357
 30
0.0
 40
0
 41
0
  0
VERTEX
  8
0
 10
14.4503
 20
22.5357
 30
0.0
 40
0
 41
0
  0
SEQEND
 8
0
  0
POLYLINE
  8
0
 62
     0
 66
     1
 10
0
 20
0
 30
0.0
 70
     1
 40
0
 41
0
  0
VERTEX
  8
0
 10
14.5606
 20
23.1854
 30
0.0
 40
0
 41
0
  0
VERTEX
  8
0
 10
14.5606
 20
23.1125
 30
0.0
 40
0
 41
0
  0
VERTEX
  8
0
 10
14.8785
 20
23.1125
 30
0.0
 40
0
 41
0
  0
VERTEX
  8
0
 10
14.8785
 20
23.1106
 30
0.0
 40
0
 41
0
  0
VERTEX
  8
0
 10
14.5963
 20
22.5357
 30
0.0
 40
0
 41
0
  0
VERTEX
  8
0
 10
14.6875
 20
22.5357
 30
0.0
 40
0
 41
0
  0
VERTEX
  8
0
 10
14.9703
 20
23.1275
 30
0.0
 40
0
 41
0
  0
VERTEX
  8
0
 10
14.9703
 20
23.1854
 30
0.0
 40
0
 41
0
  0
VERTEX
  8
0
 10
14.5606
 20
23.1854
 30
0.0
 40
0
 41
0
  0
SEQEND
 8
0
  0
POLYLINE
  8
0
 62
     0
 66
     1
 10
0
 20
0
 30
0.0
 70
     1
 40
0
 41
0
  0
VERTEX
  8
0
 10
15.1272
 20
22.5246
 30
0.0
 40
0
 41
0
  0
VERTEX
  8
0
 10
15.1335
 20
22.5246
 30
0.0
 40
0
 41
0
  0
VERTEX
  8
0
 10
15.1522
 20
22.5294
 30
0.0
 40
0
 41
0
  0
VERTEX
  8
0
 10
15.1712
 20
22.5426
 30
0.0
 40
0
 41
0
  0
VERTEX
  8
0
 10
15.1832
 20
22.5628
 30
0.0
 40
0
 41
0
  0
VERTEX
  8
0
 10
15.1874
 20
22.5815
 30
0.0
 40
0
 41
0
  0
VERTEX
  8
0
 10
15.1874
 20
22.5878
 30
0.0
 40
0
 41
0
  0
VERTEX
  8
0
 10
15.1874
 20
22.5942
 30
0.0
 40
0
 41
0
  0
VERTEX
  8
0
 10
15.1831
 20
22.6132
 30
0.0
 40
0
 41
0
  0
VERTEX
  8
0
 10
15.171
 20
22.6331
 30
0.0
 40
0
 41
0
  0
VERTEX
  8
0
 10
15.1522
 20
22.6461
 30
0.0
 40
0
 41
0
  0
VERTEX
  8
0
 10
15.1343
 20
22.6507
 30
0.0
 40
0
 41
0
  0
VERTEX
  8
0
 10
15.1283
 20
22.6507
 30
0.0
 40
0
 41
0
  0
VERTEX
  8
0
 10
15.1222
 20
22.6507
 30
0.0
 40
0
 41
0
  0
VERTEX
  8
0
 10
15.1042
 20
22.6461
 30
0.0
 40
0
 41
0
  0
VERTEX
  8
0
 10
15.0853
 20
22.6331
 30
0.0
 40
0
 41
0
  0
VERTEX
  8
0
 10
15.0729
 20
22.6132
 30
0.0
 40
0
 41
0
  0
VERTEX
  8
0
 10
15.0685
 20
22.5942
 30
0.0
 40
0
 41
0
  0
VERTEX
  8
0
 10
15.0685
 20
22.5878
 30
0.0
 40
0
 41
0
  0
VERTEX
  8
0
 10
15.0685
 20
22.5815
 30
0.0
 40
0
 41
0
  0
VERTEX
  8
0
 10
15.0726
 20
22.5628
 30
0.0
 40
0
 41
0
  0
VERTEX
  8
0
 10
15.0847
 20
22.5426
 30
0.0
 40
0
 41
0
  0
VERTEX
  8
0
 10
15.1033
 20
22.5294
 30
0.0
 40
0
 41
0
  0
VERTEX
  8
0
 10
15.1212
 20
22.5246
 30
0.0
 40
0
 41
0
  0
VERTEX
  8
0
 10
15.1272
 20
22.5246
 30
0.0
 40
0
 41
0
  0
SEQEND
 8
0
  0
POLYLINE
  8
0
 62
     0
 66
     1
 10
0
 20
0
 30
0.0
 70
     1
 40
0
 41
0
  0
VERTEX
  8
0
 10
15.2804
 20
23.1854
 30
0.0
 40
0
 41
0
  0
VERTEX
  8
0
 10
15.2804
 20
23.1125
 30
0.0
 40
0
 41
0
  0
VERTEX
  8
0
 10
15.5983
 20
23.1125
 30
0.0
 40
0
 41
0
  0
VERTEX
  8
0
 10
15.5983
 20
23.1106
 30
0.0
 40
0
 41
0
  0
VERTEX
  8
0
 10
15.3163
 20
22.5357
 30
0.0
 40
0
 41
0
  0
VERTEX
  8
0
 10
15.4074
 20
22.5357
 30
0.0
 40
0
 41
0
  0
VERTEX
  8
0
 10
15.6901
 20
23.1275
 30
0.0
 40
0
 41
0
  0
VERTEX
  8
0
 10
15.6901
 20
23.1854
 30
0.0
 40
0
 41
0
  0
VERTEX
  8
0
 10
15.2804
 20
23.1854
 30
0.0
 40
0
 41
0
  0
SEQEND
 8
0
  0
POLYLINE
  8
0
 62
     0
 66
     1
 10
0
 20
0
 30
0.0
 70
     1
 40
0
 41
0
  0
VERTEX
  8
0
 10
16.1693
 20
23.1854
 30
0.0
 40
0
 41
0
  0
VERTEX
  8
0
 10
15.8583
 20
23.1854
 30
0.0
 40
0
 41
0
  0
VERTEX
  8
0
 10
15.8164
 20
22.8736
 30
0.0
 40
0
 41
0
  0
VERTEX
  8
0
 10
15.8224
 20
22.8743
 30
0.0
 40
0
 41
0
  0
VERTEX
  8
0
 10
15.8564
 20
22.8782
 30
0.0
 40
0
 41
0
  0
VERTEX
  8
0
 10
15.8937
 20
22.8806
 30
0.0
 40
0
 41
0
  0
VERTEX
  8
0
 10
15.9063
 20
22.8806
 30
0.0
 40
0
 41
0
  0
VERTEX
  8
0
 10
15.9272
 20
22.8806
 30
0.0
 40
0
 41
0
  0
VERTEX
  8
0
 10
15.9901
 20
22.8699
 30
0.0
 40
0
 41
0
  0
VERTEX
  8
0
 10
16.0481
 20
22.8401
 30
0.0
 40
0
 41
0
  0
VERTEX
  8
0
 10
16.0818
 20
22.7946
 30
0.0
 40
0
 41
0
  0
VERTEX
  8
0
 10
16.0931
 20
22.7512
 30
0.0
 40
0
 41
0
  0
VERTEX
  8
0
 10
16.0933
 20
22.7367
 30
0.0
 40
0
 41
0
  0
VERTEX
  8
0
 10
16.0933
 20
22.7219
 30
0.0
 40
0
 41
0
  0
VERTEX
  8
0
 10
16.0808
 20
22.6779
 30
0.0
 40
0
 41
0
  0
VERTEX
  8
0
 10
16.0474
 20
22.6335
 30
0.0
 40
0
 41
0
  0
VERTEX
  8
0
 10
15.9983
 20
22.6054
 30
0.0
 40
0
 41
0
  0
VERTEX
  8
0
 10
15.954
 20
22.5956
 30
0.0
 40
0
 41
0
  0
VERTEX
  8
0
 10
15.9393
 20
22.5956
 30
0.0
 40
0
 41
0
  0
VERTEX
  8
0
 10
15.9285
 20
22.5956
 30
0.0
 40
0
 41
0
  0
VERTEX
  8
0
 10
15.8964
 20
22.599
 30
0.0
 40
0
 41
0
  0
VERTEX
  8
0
 10
15.8578
 20
22.6076
 30
0.0
 40
0
 41
0
  0
VERTEX
  8
0
 10
15.8251
 20
22.6193
 30
0.0
 40
0
 41
0
  0
VERTEX
  8
0
 10
15.8063
 20
22.6282
 30
0.0
 40
0
 41
0
  0
VERTEX
  8
0
 10
15.8004
 20
22.6317
 30
0.0
 40
0
 41
0
  0
VERTEX
  8
0
 10
15.7782
 20
22.5647
 30
0.0
 40
0
 41
0
  0
VERTEX
  8
0
 10
15.7849
 20
22.5604
 30
0.0
 40
0
 41
0
  0
VERTEX
  8
0
 10
15.8067
 20
22.55
 30
0.0
 40
0
 41
0
  0
VERTEX
  8
0
 10
15.8443
 20
22.5372
 30
0.0
 40
0
 41
0
  0
VERTEX
  8
0
 10
15.8894
 20
22.5281
 30
0.0
 40
0
 41
0
  0
VERTEX
  8
0
 10
15.9276
 20
22.5246
 30
0.0
 40
0
 41
0
  0
VERTEX
  8
0
 10
15.9403
 20
22.5246
 30
0.0
 40
0
 41
0
  0
VERTEX
  8
0
 10
15.9646
 20
22.5246
 30
0.0
 40
0
 41
0
  0
VERTEX
  8
0
 10
16.0375
 20
22.5415
 30
0.0
 40
0
 41
0
  0
VERTEX
  8
0
 10
16.114
 20
22.5881
 30
0.0
 40
0
 41
0
  0
VERTEX
  8
0
 10
16.1643
 20
22.6585
 30
0.0
 40
0
 41
0
  0
VERTEX
  8
0
 10
16.1824
 20
22.7246
 30
0.0
 40
0
 41
0
  0
VERTEX
  8
0
 10
16.1824
 20
22.7467
 30
0.0
 40
0
 41
0
  0
VERTEX
  8
0
 10
16.1824
 20
22.7608
 30
0.0
 40
0
 41
0
  0
VERTEX
  8
0
 10
16.1749
 20
22.8033
 30
0.0
 40
0
 41
0
  0
VERTEX
  8
0
 10
16.1549
 20
22.85
 30
0.0
 40
0
 41
0
  0
VERTEX
  8
0
 10
16.1253
 20
22.8868
 30
0.0
 40
0
 41
0
  0
VERTEX
  8
0
 10
16.0989
 20
22.9081
 30
0.0
 40
0
 41
0
  0
VERTEX
  8
0
 10
16.0892
 20
22.9135
 30
0.0
 40
0
 41
0
  0
VERTEX
  8
0
 10
16.0792
 20
22.9196
 30
0.0
 40
0
 41
0
  0
VERTEX
  8
0
 10
16.0231
 20
22.9401
 30
0.0
 40
0
 41
0
  0
VERTEX
  8
0
 10
15.9676
 20
22.9486
 30
0.0
 40
0
 41
0
  0
VERTEX
  8
0
 10
15.9492
 20
22.9486
 30
0.0
 40
0
 41
0
  0
VERTEX
  8
0
 10
15.9417
 20
22.9486
 30
0.0
 40
0
 41
0
  0
VERTEX
  8
0
 10
15.9194
 20
22.9474
 30
0.0
 40
0
 41
0
  0
VERTEX
  8
0
 10
15.9
 20
22.945
 30
0.0
 40
0
 41
0
  0
VERTEX
  8
0
 10
15.8963
 20
22.9446
 30
0.0
 40
0
 41
0
  0
VERTEX
  8
0
 10
15.9212
 20
23.1117
 30
0.0
 40
0
 41
0
  0
VERTEX
  8
0
 10
16.1693
 20
23.1117
 30
0.0
 40
0
 41
0
  0
VERTEX
  8
0
 10
16.1693
 20
23.1854
 30
0.0
 40
0
 41
0
  0
SEQEND
 8
0
  0
POLYLINE
  8
0
 62
     0
 66
     1
 10
0
 20
0
 30
0.0
 70
     1
 40
0
 41
0
  0
VERTEX
  8
0
 10
16.3422
 20
23.2115
 30
0.0
 40
0
 41
0
  0
VERTEX
  8
0
 10
16.3394
 20
23.1935
 30
0.0
 40
0
 41
0
  0
VERTEX
  8
0
 10
16.3165
 20
23.0892
 30
0.0
 40
0
 41
0
  0
VERTEX
  8
0
 10
16.2886
 20
22.9914
 30
0.0
 40
0
 41
0
  0
VERTEX
  8
0
 10
16.2833
 20
22.9767
 30
0.0
 40
0
 41
0
  0
VERTEX
  8
0
 10
16.3393
 20
22.9836
 30
0.0
 40
0
 41
0
  0
VERTEX
  8
0
 10
16.3457
 20
22.9944
 30
0.0
 40
0
 41
0
  0
VERTEX
  8
0
 10
16.3619
 20
23.0283
 30
0.0
 40
0
 41
0
  0
VERTEX
  8
0
 10
16.3872
 20
23.0879
 30
0.0
 40
0
 41
0
  0
VERTEX
  8
0
 10
16.4118
 20
23.1546
 30
0.0
 40
0
 41
0
  0
VERTEX
  8
0
 10
16.4276
 20
23.204
 30
0.0
 40
0
 41
0
  0
VERTEX
  8
0
 10
16.4322
 20
23.2206
 30
0.0
 40
0
 41
0
  0
VERTEX
  8
0
 10
16.3422
 20
23.2115
 30
0.0
 40
0
 41
0
  0
SEQEND
 8
0
  0
POLYLINE
  8
0
 62
     0
 66
     1
 10
0
 20
0
 30
0.0
 70
     1
 40
0
 41
0
  0
VERTEX
  8
0
 10
16.4901
 20
23.2115
 30
0.0
 40
0
 41
0
  0
VERTEX
  8
0
 10
16.4875
 20
23.1935
 30
0.0
 40
0
 41
0
  0
VERTEX
  8
0
 10
16.4649
 20
23.0892
 30
0.0
 40
0
 41
0
  0
VERTEX
  8
0
 10
16.4367
 20
22.9914
 30
0.0
 40
0
 41
0
  0
VERTEX
  8
0
 10
16.4311
 20
22.9767
 30
0.0
 40
0
 41
0
  0
VERTEX
  8
0
 10
16.4871
 20
22.9836
 30
0.0
 40
0
 41
0
  0
VERTEX
  8
0
 10
16.4935
 20
22.9944
 30
0.0
 40
0
 41
0
  0
VERTEX
  8
0
 10
16.5099
 20
23.0283
 30
0.0
 40
0
 41
0
  0
VERTEX
  8
0
 10
16.5353
 20
23.0879
 30
0.0
 40
0
 41
0
  0
VERTEX
  8
0
 10
16.5597
 20
23.1546
 30
0.0
 40
0
 41
0
  0
VERTEX
  8
0
 10
16.5757
 20
23.204
 30
0.0
 40
0
 41
0
  0
VERTEX
  8
0
 10
16.5803
 20
23.2206
 30
0.0
 40
0
 41
0
  0
VERTEX
  8
0
 10
16.4901
 20
23.2115
 30
0.0
 40
0
 41
0
  0
SEQEND
 8
0
  0
POLYLINE
  8
0
 62
     0
 66
     1
 10
0
 20
0
 30
0.0
 70
     1
 40
0
 41
0
  0
VERTEX
  8
0
 10
16.7453
 20
23.0196
 30
0.0
 40
0
 41
0
  0
VERTEX
  8
0
 10
16.9092
 20
22.7826
 30
0.0
 40
0
 41
0
  0
VERTEX
  8
0
 10
16.7372
 20
22.5357
 30
0.0
 40
0
 41
0
  0
VERTEX
  8
0
 10
16.8343
 20
22.5357
 30
0.0
 40
0
 41
0
  0
VERTEX
  8
0
 10
16.9042
 20
22.6446
 30
0.0
 40
0
 41
0
  0
VERTEX
  8
0
 10
16.9086
 20
22.6519
 30
0.0
 40
0
 41
0
  0
VERTEX
  8
0
 10
16.9511
 20
22.7214
 30
0.0
 40
0
 41
0
  0
VERTEX
  8
0
 10
16.9551
 20
22.7286
 30
0.0
 40
0
 41
0
  0
VERTEX
  8
0
 10
16.9571
 20
22.7286
 30
0.0
 40
0
 41
0
  0
VERTEX
  8
0
 10
16.9614
 20
22.7214
 30
0.0
 40
0
 41
0
  0
VERTEX
  8
0
 10
17.0044
 20
22.6517
 30
0.0
 40
0
 41
0
  0
VERTEX
  8
0
 10
17.0092
 20
22.6446
 30
0.0
 40
0
 41
0
  0
VERTEX
  8
0
 10
17.0801
 20
22.5357
 30
0.0
 40
0
 41
0
  0
VERTEX
  8
0
 10
17.1801
 20
22.5357
 30
0.0
 40
0
 41
0
  0
VERTEX
  8
0
 10
17.0103
 20
22.7857
 30
0.0
 40
0
 41
0
  0
VERTEX
  8
0
 10
17.1751
 20
23.0196
 30
0.0
 40
0
 41
0
  0
VERTEX
  8
0
 10
17.0801
 20
23.0196
 30
0.0
 40
0
 41
0
  0
VERTEX
  8
0
 10
17.0122
 20
22.9165
 30
0.0
 40
0
 41
0
  0
VERTEX
  8
0
 10
17.0082
 20
22.91
 30
0.0
 40
0
 41
0
  0
VERTEX
  8
0
 10
16.9682
 20
22.8439
 30
0.0
 40
0
 41
0
  0
VERTEX
  8
0
 10
16.9643
 20
22.8367
 30
0.0
 40
0
 41
0
  0
VERTEX
  8
0
 10
16.9612
 20
22.8367
 30
0.0
 40
0
 41
0
  0
VERTEX
  8
0
 10
16.9572
 20
22.8435
 30
0.0
 40
0
 41
0
  0
VERTEX
  8
0
 10
16.9167
 20
22.9089
 30
0.0
 40
0
 41
0
  0
VERTEX
  8
0
 10
16.9122
 20
22.9157
 30
0.0
 40
0
 41
0
  0
VERTEX
  8
0
 10
16.8432
 20
23.0196
 30
0.0
 40
0
 41
0
  0
VERTEX
  8
0
 10
16.7453
 20
23.0196
 30
0.0
 40
0
 41
0
  0
SEQEND
 8
0
  0
POLYLINE
  8
0
 62
     0
 66
     1
 10
0
 20
0
 30
0.0
 70
     1
 40
0
 41
0
  0
VERTEX
  8
0
 10
17.6401
 20
22.5357
 30
0.0
 40
0
 41
0
  0
VERTEX
  8
0
 10
17.7251
 20
22.5357
 30
0.0
 40
0
 41
0
  0
VERTEX
  8
0
 10
17.7251
 20
23.1854
 30
0.0
 40
0
 41
0
  0
VERTEX
  8
0
 10
17.65
 20
23.1854
 30
0.0
 40
0
 41
0
  0
VERTEX
  8
0
 10
17.5082
 20
23.1094
 30
0.0
 40
0
 41
0
  0
VERTEX
  8
0
 10
17.525
 20
23.0426
 30
0.0
 40
0
 41
0
  0
VERTEX
  8
0
 10
17.6382
 20
23.1036
 30
0.0
 40
0
 41
0
  0
VERTEX
  8
0
 10
17.6401
 20
23.1036
 30
0.0
 40
0
 41
0
  0
VERTEX
  8
0
 10
17.6401
 20
22.5357
 30
0.0
 40
0
 41
0
  0
SEQEND
 8
0
  0
POLYLINE
  8
0
 62
     0
 66
     1
 10
0
 20
0
 30
0.0
 70
     1
 40
0
 41
0
  0
VERTEX
  8
0
 10
18.3329
 20
23.1954
 30
0.0
 40
0
 41
0
  0
VERTEX
  8
0
 10
18.3258
 20
23.1954
 30
0.0
 40
0
 41
0
  0
VERTEX
  8
0
 10
18.3049
 20
23.1944
 30
0.0
 40
0
 41
0
  0
VERTEX
  8
0
 10
18.2756
 20
23.1915
 30
0.0
 40
0
 41
0
  0
VERTEX
  8
0
 10
18.2692
 20
23.1904
 30
0.0
 40
0
 41
0
  0
VERTEX
  8
0
 10
18.2542
 20
23.1886
 30
0.0
 40
0
 41
0
  0
VERTEX
  8
0
 10
18.2096
 20
23.1788
 30
0.0
 40
0
 41
0
  0
VERTEX
  8
0
 10
18.1546
 20
23.1586
 30
0.0
 40
0
 41
0
  0
VERTEX
  8
0
 10
18.1047
 20
23.1304
 30
0.0
 40
0
 41
0
  0
VERTEX
  8
0
 10
18.0711
 20
23.1044
 30
0.0
 40
0
 41
0
  0
VERTEX
  8
0
 10
18.061
 20
23.0944
 30
0.0
 40
0
 41
0
  0
VERTEX
  8
0
 10
18.0486
 20
23.0821
 30
0.0
 40
0
 41
0
  0
VERTEX
  8
0
 10
18.0169
 20
23.0397
 30
0.0
 40
0
 41
0
  0
VERTEX
  8
0
 10
17.9822
 20
22.9721
 30
0.0
 40
0
 41
0
  0
VERTEX
  8
0
 10
17.9593
 20
22.8924
 30
0.0
 40
0
 41
0
  0
VERTEX
  8
0
 10
17.9512
 20
22.8243
 30
0.0
 40
0
 41
0
  0
VERTEX
  8
0
 10
17.9512
 20
22.8015
 30
0.0
 40
0
 41
0
  0
VERTEX
  8
0
 10
17.9512
 20
22.7729
 30
0.0
 40
0
 41
0
  0
VERTEX
  8
0
 10
17.9675
 20
22.6871
 30
0.0
 40
0
 41
0
  0
VERTEX
  8
0
 10
18.014
 20
22.5997
 30
0.0
 40
0
 41
0
  0
VERTEX
  8
0
 10
18.0865
 20
22.5442
 30
0.0
 40
0
 41
0
  0
VERTEX
  8
0
 10
18.1574
 20
22.5246
 30
0.0
 40
0
 41
0
  0
VERTEX
  8
0
 10
18.1811
 20
22.5246
 30
0.0
 40
0
 41
0
  0
VERTEX
  8
0
 10
18.2036
 20
22.5246
 30
0.0
 40
0
 41
0
  0
VERTEX
  8
0
 10
18.2717
 20
22.5438
 30
0.0
 40
0
 41
0
  0
VERTEX
  8
0
 10
18.3396
 20
22.5944
 30
0.0
 40
0
 41
0
  0
VERTEX
  8
0
 10
18.3822
 20
22.6676
 30
0.0
 40
0
 41
0
  0
VERTEX
  8
0
 10
18.3969
 20
22.7321
 30
0.0
 40
0
 41
0
  0
VERTEX
  8
0
 10
18.3969
 20
22.7536
 30
0.0
 40
0
 41
0
  0
VERTEX
  8
0
 10
18.3969
 20
22.765
 30
0.0
 40
0
 41
0
  0
VERTEX
  8
0
 10
18.3932
 20
22.7992
 30
0.0
 40
0
 41
0
  0
VERTEX
  8
0
 10
18.3825
 20
22.84
 30
0.0
 40
0
 41
0
  0
VERTEX
  8
0
 10
18.3653
 20
22.8758
 30
0.0
 40
0
 41
0
  0
VERTEX
  8
0
 10
18.3421
 20
22.9063
 30
0.0
 40
0
 41
0
  0
VERTEX
  8
0
 10
18.3135
 20
22.9307
 30
0.0
 40
0
 41
0
  0
VERTEX
  8
0
 10
18.2801
 20
22.9488
 30
0.0
 40
0
 41
0
  0
VERTEX
  8
0
 10
18.2424
 20
22.9599
 30
0.0
 40
0
 41
0
  0
VERTEX
  8
0
 10
18.2112
 20
22.9636
 30
0.0
 40
0
 41
0
  0
VERTEX
  8
0
 10
18.201
 20
22.9636
 30
0.0
 40
0
 41
0
  0
VERTEX
  8
0
 10
18.1883
 20
22.9636
 30
0.0
 40
0
 41
0
  0
VERTEX
  8
0
 10
18.1506
 20
22.9578
 30
0.0
 40
0
 41
0
  0
VERTEX
  8
0
 10
18.1072
 20
22.9415
 30
0.0
 40
0
 41
0
  0
VERTEX
  8
0
 10
18.0717
 20
22.9176
 30
0.0
 40
0
 41
0
  0
VERTEX
  8
0
 10
18.0501
 20
22.8965
 30
0.0
 40
0
 41
0
  0
VERTEX
  8
0
 10
18.0442
 20
22.8886
 30
0.0
 40
0
 41
0
  0
VERTEX
  8
0
 10
18.0411
 20
22.8886
 30
0.0
 40
0
 41
0
  0
VERTEX
  8
0
 10
18.0439
 20
22.9085
 30
0.0
 40
0
 41
0
  0
VERTEX
  8
0
 10
18.0632
 20
22.9665
 30
0.0
 40
0
 41
0
  0
VERTEX
  8
0
 10
18.1079
 20
23.0356
 30
0.0
 40
0
 41
0
  0
VERTEX
  8
0
 10
18.1756
 20
23.0888
 30
0.0
 40
0
 41
0
  0
VERTEX
  8
0
 10
18.2435
 20
23.1156
 30
0.0
 40
0
 41
0
  0
VERTEX
  8
0
 10
18.2669
 20
23.1194
 30
0.0
 40
0
 41
0
  0
VERTEX
  8
0
 10
18.2733
 20
23.1206
 30
0.0
 40
0
 41
0
  0
VERTEX
  8
0
 10
18.3285
 20
23.1238
 30
0.0
 40
0
 41
0
  0
VERTEX
  8
0
 10
18.3329
 20
23.1236
 30
0.0
 40
0
 41
0
  0
VERTEX
  8
0
 10
18.3329
 20
23.1954
 30
0.0
 40
0
 41
0
  0
SEQEND
 8
0
  0
POLYLINE
  8
0
 62
     0
 66
     1
 10
0
 20
0
 30
0.0
 70
     1
 40
0
 41
0
  0
VERTEX
  8
0
 10
18.1811
 20
22.5928
 30
0.0
 40
0
 41
0
  0
VERTEX
  8
0
 10
18.1658
 20
22.5928
 30
0.0
 40
0
 41
0
  0
VERTEX
  8
0
 10
18.1201
 20
22.6068
 30
0.0
 40
0
 41
0
  0
VERTEX
  8
0
 10
18.0758
 20
22.6456
 30
0.0
 40
0
 41
0
  0
VERTEX
  8
0
 10
18.0483
 20
22.7044
 30
0.0
 40
0
 41
0
  0
VERTEX
  8
0
 10
18.0383
 20
22.76
 30
0.0
 40
0
 41
0
  0
VERTEX
  8
0
 10
18.0381
 20
22.7785
 30
0.0
 40
0
 41
0
  0
VERTEX
  8
0
 10
18.0381
 20
22.7883
 30
0.0
 40
0
 41
0
  0
VERTEX
  8
0
 10
18.0465
 20
22.8151
 30
0.0
 40
0
 41
0
  0
VERTEX
  8
0
 10
18.0481
 20
22.8176
 30
0.0
 40
0
 41
0
  0
VERTEX
  8
0
 10
18.0524
 20
22.8263
 30
0.0
 40
0
 41
0
  0
VERTEX
  8
0
 10
18.0704
 20
22.85
 30
0.0
 40
0
 41
0
  0
VERTEX
  8
0
 10
18.1001
 20
22.8753
 30
0.0
 40
0
 41
0
  0
VERTEX
  8
0
 10
18.1354
 20
22.8918
 30
0.0
 40
0
 41
0
  0
VERTEX
  8
0
 10
18.1644
 20
22.8976
 30
0.0
 40
0
 41
0
  0
VERTEX
  8
0
 10
18.1742
 20
22.8976
 30
0.0
 40
0
 41
0
  0
VERTEX
  8
0
 10
18.1878
 20
22.8976
 30
0.0
 40
0
 41
0
  0
VERTEX
  8
0
 10
18.2292
 20
22.8875
 30
0.0
 40
0
 41
0
  0
VERTEX
  8
0
 10
18.2714
 20
22.8581
 30
0.0
 40
0
 41
0
  0
VERTEX
  8
0
 10
18.2985
 20
22.8113
 30
0.0
 40
0
 41
0
  0
VERTEX
  8
0
 10
18.3081
 20
22.7643
 30
0.0
 40
0
 41
0
  0
VERTEX
  8
0
 10
18.3081
 20
22.7486
 30
0.0
 40
0
 41
0
  0
VERTEX
  8
0
 10
18.3081
 20
22.7328
 30
0.0
 40
0
 41
0
  0
VERTEX
  8
0
 10
18.2989
 20
22.685
 30
0.0
 40
0
 41
0
  0
VERTEX
  8
0
 10
18.2731
 20
22.6358
 30
0.0
 40
0
 41
0
  0
VERTEX
  8
0
 10
18.2329
 20
22.604
 30
0.0
 40
0
 41
0
  0
VERTEX
  8
0
 10
18.194
 20
22.5928
 30
0.0
 40
0
 41
0
  0
VERTEX
  8
0
 10
18.1811
 20
22.5928
 30
0.0
 40
0
 41
0
  0
SEQEND
 8
0
  0
POLYLINE
  8
0
 62
     0
 66
     1
 10
0
 20
0
 30
0.0
 70
     1
 40
0
 41
0
  0
VERTEX
  8
0
 10
18.5231
 20
23.2115
 30
0.0
 40
0
 41
0
  0
VERTEX
  8
0
 10
18.5203
 20
23.1935
 30
0.0
 40
0
 41
0
  0
VERTEX
  8
0
 10
18.4978
 20
23.0892
 30
0.0
 40
0
 41
0
  0
VERTEX
  8
0
 10
18.4697
 20
22.9914
 30
0.0
 40
0
 41
0
  0
VERTEX
  8
0
 10
18.4642
 20
22.9767
 30
0.0
 40
0
 41
0
  0
VERTEX
  8
0
 10
18.5201
 20
22.9836
 30
0.0
 40
0
 41
0
  0
VERTEX
  8
0
 10
18.5267
 20
22.9943
 30
0.0
 40
0
 41
0
  0
VERTEX
  8
0
 10
18.5435
 20
23.0283
 30
0.0
 40
0
 41
0
  0
VERTEX
  8
0
 10
18.569
 20
23.0879
 30
0.0
 40
0
 41
0
  0
VERTEX
  8
0
 10
18.5938
 20
23.1546
 30
0.0
 40
0
 41
0
  0
VERTEX
  8
0
 10
18.6096
 20
23.204
 30
0.0
 40
0
 41
0
  0
VERTEX
  8
0
 10
18.6142
 20
23.2206
 30
0.0
 40
0
 41
0
  0
VERTEX
  8
0
 10
18.5231
 20
23.2115
 30
0.0
 40
0
 41
0
  0
SEQEND
 8
0
  0
POLYLINE
  8
0
 62
     0
 66
     1
 10
0
 20
0
 30
0.0
 70
     1
 40
0
 41
0
  0
VERTEX
  8
0
 10
18.6719
 20
23.2115
 30
0.0
 40
0
 41
0
  0
VERTEX
  8
0
 10
18.6693
 20
23.1935
 30
0.0
 40
0
 41
0
  0
VERTEX
  8
0
 10
18.6467
 20
23.0892
 30
0.0
 40
0
 41
0
  0
VERTEX
  8
0
 10
18.6186
 20
22.9914
 30
0.0
 40
0
 41
0
  0
VERTEX
  8
0
 10
18.6132
 20
22.9767
 30
0.0
 40
0
 41
0
  0
VERTEX
  8
0
 10
18.6692
 20
22.9836
 30
0.0
 40
0
 41
0
  0
VERTEX
  8
0
 10
18.6757
 20
22.9943
 30
0.0
 40
0
 41
0
  0
VERTEX
  8
0
 10
18.6924
 20
23.0283
 30
0.0
 40
0
 41
0
  0
VERTEX
  8
0
 10
18.7181
 20
23.0879
 30
0.0
 40
0
 41
0
  0
VERTEX
  8
0
 10
18.7426
 20
23.1546
 30
0.0
 40
0
 41
0
  0
VERTEX
  8
0
 10
18.7586
 20
23.204
 30
0.0
 40
0
 41
0
  0
VERTEX
  8
0
 10
18.7632
 20
23.2206
 30
0.0
 40
0
 41
0
  0
VERTEX
  8
0
 10
18.6719
 20
23.2115
 30
0.0
 40
0
 41
0
  0
SEQEND
 8
0
  0
POLYLINE
  8
0
 62
     0
 66
     1
 10
0
 20
0
 30
0.0
 70
     1
 40
0
 41
0
  0
VERTEX
  8
0
 10
3.57596
 20
21.3357
 30
0.0
 40
0
 41
0
  0
VERTEX
  8
0
 10
3.66297
 20
21.3357
 30
0.0
 40
0
 41
0
  0
VERTEX
  8
0
 10
3.66297
 20
21.6276
 30
0.0
 40
0
 41
0
  0
VERTEX
  8
0
 10
3.74501
 20
21.6276
 30
0.0
 40
0
 41
0
  0
VERTEX
  8
0
 10
3.75792
 20
21.6271
 30
0.0
 40
0
 41
0
  0
VERTEX
  8
0
 10
3.79656
 20
21.619
 30
0.0
 40
0
 41
0
  0
VERTEX
  8
0
 10
3.83453
 20
21.5958
 30
0.0
 40
0
 41
0
  0
VERTEX
  8
0
 10
3.86149
 20
21.556
 30
0.0
 40
0
 41
0
  0
VERTEX
  8
0
 10
3.87668
 20
21.5119
 30
0.0
 40
0
 41
0
  0
VERTEX
  8
0
 10
3.87999
 20
21.4968
 30
0.0
 40
0
 41
0
  0
VERTEX
  8
0
 10
3.88325
 20
21.4822
 30
0.0
 40
0
 41
0
  0
VERTEX
  8
0
 10
3.89339
 20
21.4389
 30
0.0
 40
0
 41
0
  0
VERTEX
  8
0
 10
3.90539
 20
21.3919
 30
0.0
 40
0
 41
0
  0
VERTEX
  8
0
 10
3.91585
 20
21.3571
 30
0.0
 40
0
 41
0
  0
VERTEX
  8
0
 10
3.92215
 20
21.3406
 30
0.0
 40
0
 41
0
  0
VERTEX
  8
0
 10
3.92492
 20
21.3357
 30
0.0
 40
0
 41
0
  0
VERTEX
  8
0
 10
4.01497
 20
21.3357
 30
0.0
 40
0
 41
0
  0
VERTEX
  8
0
 10
4.01156
 20
21.3421
 30
0.0
 40
0
 41
0
  0
VERTEX
  8
0
 10
4.00396
 20
21.3624
 30
0.0
 40
0
 41
0
  0
VERTEX
  8
0
 10
3.99186
 20
21.4028
 30
0.0
 40
0
 41
0
  0
VERTEX
  8
0
 10
3.97825
 20
21.4558
 30
0.0
 40
0
 41
0
  0
VERTEX
  8
0
 10
3.96664
 20
21.5044
 30
0.0
 40
0
 41
0
  0
VERTEX
  8
0
 10
3.96289
 20
21.5206
 30
0.0
 40
0
 41
0
  0
VERTEX
  8
0
 10
3.96007
 20
21.5329
 30
0.0
 40
0
 41
0
  0
VERTEX
  8
0
 10
3.94792
 20
21.5689
 30
0.0
 40
0
 41
0
  0
VERTEX
  8
0
 10
3.92681
 20
21.6082
 30
0.0
 40
0
 41
0
  0
VERTEX
  8
0
 10
3.89899
 20
21.6376
 30
0.0
 40
0
 41
0
  0
VERTEX
  8
0
 10
3.87321
 20
21.6535
 30
0.0
 40
0
 41
0
  0
VERTEX
  8
0
 10
3.86393
 20
21.6567
 30
0.0
 40
0
 41
0
  0
VERTEX
  8
0
 10
3.86393
 20
21.6597
 30
0.0
 40
0
 41
0
  0
VERTEX
  8
0
 10
3.8769
 20
21.6642
 30
0.0
 40
0
 41
0
  0
VERTEX
  8
0
 10
3.91368
 20
21.6842
 30
0.0
 40
0
 41
0
  0
VERTEX
  8
0
 10
3.954
 20
21.7213
 30
0.0
 40
0
 41
0
  0
VERTEX
  8
0
 10
3.98101
 20
21.7706
 30
0.0
 40
0
 41
0
  0
VERTEX
  8
0
 10
3.99089
 20
21.8164
 30
0.0
 40
0
 41
0
  0
VERTEX
  8
0
 10
3.99089
 20
21.8317
 30
0.0
 40
0
 41
0
  0
VERTEX
  8
0
 10
3.99089
 20
21.8497
 30
0.0
 40
0
 41
0
  0
VERTEX
  8
0
 10
3.97711
 20
21.9039
 30
0.0
 40
0
 41
0
  0
VERTEX
  8
0
 10
3.9464
 20
21.9521
 30
0.0
 40
0
 41
0
  0
VERTEX
  8
0
 10
3.93793
 20
21.9596
 30
0.0
 40
0
 41
0
  0
VERTEX
  8
0
 10
3.93001
 20
21.9668
 30
0.0
 40
0
 41
0
  0
VERTEX
  8
0
 10
3.90278
 20
21.9843
 30
0.0
 40
0
 41
0
  0
VERTEX
  8
0
 10
3.85949
 20
22.0014
 30
0.0
 40
0
 41
0
  0
VERTEX
  8
0
 10
3.80664
 20
22.0114
 30
0.0
 40
0
 41
0
  0
VERTEX
  8
0
 10
3.75879
 20
22.0146
 30
0.0
 40
0
 41
0
  0
VERTEX
  8
0
 10
3.74283
 20
22.0146
 30
0.0
 40
0
 41
0
  0
VERTEX
  8
0
 10
3.72049
 20
22.0146
 30
0.0
 40
0
 41
0
  0
VERTEX
  8
0
 10
3.65343
 20
22.011
 30
0.0
 40
0
 41
0
  0
VERTEX
  8
0
 10
3.58697
 20
22.0029
 30
0.0
 40
0
 41
0
  0
VERTEX
  8
0
 10
3.57596
 20
22.0007
 30
0.0
 40
0
 41
0
  0
VERTEX
  8
0
 10
3.57596
 20
21.3357
 30
0.0
 40
0
 41
0
  0
SEQEND
 8
0
  0
POLYLINE
  8
0
 62
     0
 66
     1
 10
0
 20
0
 30
0.0
 70
     1
 40
0
 41
0
  0
VERTEX
  8
0
 10
3.66297
 20
21.9397
 30
0.0
 40
0
 41
0
  0
VERTEX
  8
0
 10
3.66644
 20
21.9407
 30
0.0
 40
0
 41
0
  0
VERTEX
  8
0
 10
3.69542
 20
21.945
 30
0.0
 40
0
 41
0
  0
VERTEX
  8
0
 10
3.73551
 20
21.9475
 30
0.0
 40
0
 41
0
  0
VERTEX
  8
0
 10
3.74892
 20
21.9475
 30
0.0
 40
0
 41
0
  0
VERTEX
  8
0
 10
3.76465
 20
21.9474
 30
0.0
 40
0
 41
0
  0
VERTEX
  8
0
 10
3.8119
 20
21.9397
 30
0.0
 40
0
 41
0
  0
VERTEX
  8
0
 10
3.86089
 20
21.9169
 30
0.0
 40
0
 41
0
  0
VERTEX
  8
0
 10
3.89258
 20
21.8779
 30
0.0
 40
0
 41
0
  0
VERTEX
  8
0
 10
3.90386
 20
21.8357
 30
0.0
 40
0
 41
0
  0
VERTEX
  8
0
 10
3.90386
 20
21.8217
 30
0.0
 40
0
 41
0
  0
VERTEX
  8
0
 10
3.90386
 20
21.8085
 30
0.0
 40
0
 41
0
  0
VERTEX
  8
0
 10
3.89318
 20
21.7692
 30
0.0
 40
0
 41
0
  0
VERTEX
  8
0
 10
3.86274
 20
21.7287
 30
0.0
 40
0
 41
0
  0
VERTEX
  8
0
 10
3.81483
 20
21.7028
 30
0.0
 40
0
 41
0
  0
VERTEX
  8
0
 10
3.76764
 20
21.6936
 30
0.0
 40
0
 41
0
  0
VERTEX
  8
0
 10
3.75196
 20
21.6936
 30
0.0
 40
0
 41
0
  0
VERTEX
  8
0
 10
3.66297
 20
21.6936
 30
0.0
 40
0
 41
0
  0
VERTEX
  8
0
 10
3.66297
 20
21.9397
 30
0.0
 40
0
 41
0
  0
SEQEND
 8
0
  0
POLYLINE
  8
0
 62
     0
 66
     1
 10
0
 20
0
 30
0.0
 70
     1
 40
0
 41
0
  0
VERTEX
  8
0
 10
4.49783
 20
21.3357
 30
0.0
 40
0
 41
0
  0
VERTEX
  8
0
 10
4.49783
 20
21.4086
 30
0.0
 40
0
 41
0
  0
VERTEX
  8
0
 10
4.20594
 20
21.4086
 30
0.0
 40
0
 41
0
  0
VERTEX
  8
0
 10
4.20594
 20
21.4108
 30
0.0
 40
0
 41
0
  0
VERTEX
  8
0
 10
4.25782
 20
21.4588
 30
0.0
 40
0
 41
0
  0
VERTEX
  8
0
 10
4.28147
 20
21.4817
 30
0.0
 40
0
 41
0
  0
VERTEX
  8
0
 10
4.35064
 20
21.5521
 30
0.0
 40
0
 41
0
  0
VERTEX
  8
0
 10
4.42122
 20
21.6376
 30
0.0
 40
0
 41
0
  0
VERTEX
  8
0
 10
4.46604
 20
21.7211
 30
0.0
 40
0
 41
0
  0
VERTEX
  8
0
 10
4.48178
 20
21.786
 30
0.0
 40
0
 41
0
  0
VERTEX
  8
0
 10
4.48178
 20
21.8075
 30
0.0
 40
0
 41
0
  0
VERTEX
  8
0
 10
4.48178
 20
21.8163
 30
0.0
 40
0
 41
0
  0
VERTEX
  8
0
 10
4.47894
 20
21.8424
 30
0.0
 40
0
 41
0
  0
VERTEX
  8
0
 10
4.47038
 20
21.8764
 30
0.0
 40
0
 41
0
  0
VERTEX
  8
0
 10
4.45574
 20
21.9082
 30
0.0
 40
0
 41
0
  0
VERTEX
  8
0
 10
4.43485
 20
21.9369
 30
0.0
 40
0
 41
0
  0
VERTEX
  8
0
 10
4.40739
 20
21.9612
 30
0.0
 40
0
 41
0
  0
VERTEX
  8
0
 10
4.37304
 20
21.9801
 30
0.0
 40
0
 41
0
  0
VERTEX
  8
0
 10
4.33171
 20
21.9922
 30
0.0
 40
0
 41
0
  0
VERTEX
  8
0
 10
4.29514
 20
21.9965
 30
0.0
 40
0
 41
0
  0
VERTEX
  8
0
 10
4.28299
 20
21.9965
 30
0.0
 40
0
 41
0
  0
VERTEX
  8
0
 10
4.26942
 20
21.9965
 30
0.0
 40
0
 41
0
  0
VERTEX
  8
0
 10
4.22885
 20
21.9915
 30
0.0
 40
0
 41
0
  0
VERTEX
  8
0
 10
4.17964
 20
21.9778
 30
0.0
 40
0
 41
0
  0
VERTEX
  8
0
 10
4.13607
 20
21.9569
 30
0.0
 40
0
 41
0
  0
VERTEX
  8
0
 10
4.10758
 20
21.9379
 30
0.0
 40
0
 41
0
  0
VERTEX
  8
0
 10
4.09896
 20
21.9306
 30
0.0
 40
0
 41
0
  0
VERTEX
  8
0
 10
4.12696
 20
21.8685
 30
0.0
 40
0
 41
0
  0
VERTEX
  8
0
 10
4.13308
 20
21.8738
 30
0.0
 40
0
 41
0
  0
VERTEX
  8
0
 10
4.15283
 20
21.8878
 30
0.0
 40
0
 41
0
  0
VERTEX
  8
0
 10
4.18506
 20
21.9056
 30
0.0
 40
0
 41
0
  0
VERTEX
  8
0
 10
4.22271
 20
21.9186
 30
0.0
 40
0
 41
0
  0
VERTEX
  8
0
 10
4.25439
 20
21.9236
 30
0.0
 40
0
 41
0
  0
VERTEX
  8
0
 10
4.26497
 20
21.9236
 30
0.0
 40
0
 41
0
  0
VERTEX
  8
0
 10
4.28022
 20
21.9236
 30
0.0
 40
0
 41
0
  0
VERTEX
  8
0
 10
4.32601
 20
21.9131
 30
0.0
 40
0
 41
0
  0
VERTEX
  8
0
 10
4.36578
 20
21.8849
 30
0.0
 40
0
 41
0
  0
VERTEX
  8
0
 10
4.38737
 20
21.8443
 30
0.0
 40
0
 41
0
  0
VERTEX
  8
0
 10
4.39388
 20
21.8086
 30
0.0
 40
0
 41
0
  0
VERTEX
  8
0
 10
4.39388
 20
21.7967
 30
0.0
 40
0
 41
0
  0
VERTEX
  8
0
 10
4.39367
 20
21.7786
 30
0.0
 40
0
 41
0
  0
VERTEX
  8
0
 10
4.37896
 20
21.7244
 30
0.0
 40
0
 41
0
  0
VERTEX
  8
0
 10
4.33475
 20
21.649
 30
0.0
 40
0
 41
0
  0
VERTEX
  8
0
 10
4.2596
 20
21.5626
 30
0.0
 40
0
 41
0
  0
VERTEX
  8
0
 10
4.17925
 20
21.4826
 30
0.0
 40
0
 41
0
  0
VERTEX
  8
0
 10
4.15192
 20
21.4567
 30
0.0
 40
0
 41
0
  0
VERTEX
  8
0
 10
4.0829
 20
21.3897
 30
0.0
 40
0
 41
0
  0
VERTEX
  8
0
 10
4.0829
 20
21.3357
 30
0.0
 40
0
 41
0
  0
VERTEX
  8
0
 10
4.49783
 20
21.3357
 30
0.0
 40
0
 41
0
  0
SEQEND
 8
0
  0
POLYLINE
  8
0
 62
     0
 66
     1
 10
0
 20
0
 30
0.0
 70
     1
 40
0
 41
0
  0
VERTEX
  8
0
 10
4.80593
 20
21.3247
 30
0.0
 40
0
 41
0
  0
VERTEX
  8
0
 10
4.81717
 20
21.3247
 30
0.0
 40
0
 41
0
  0
VERTEX
  8
0
 10
4.85097
 20
21.3282
 30
0.0
 40
0
 41
0
  0
VERTEX
  8
0
 10
4.89268
 20
21.3383
 30
0.0
 40
0
 41
0
  0
VERTEX
  8
0
 10
4.93028
 20
21.3547
 30
0.0
 40
0
 41
0
  0
VERTEX
  8
0
 10
4.96283
 20
21.3768
 30
0.0
 40
0
 41
0
  0
VERTEX
  8
0
 10
4.98958
 20
21.4042
 30
0.0
 40
0
 41
0
  0
VERTEX
  8
0
 10
5.00971
 20
21.4365
 30
0.0
 40
0
 41
0
  0
VERTEX
  8
0
 10
5.0224
 20
21.4731
 30
0.0
 40
0
 41
0
  0
VERTEX
  8
0
 10
5.02686
 20
21.5035
 30
0.0
 40
0
 41
0
  0
VERTEX
  8
0
 10
5.02686
 20
21.5136
 30
0.0
 40
0
 41
0
  0
VERTEX
  8
0
 10
5.02686
 20
21.5275
 30
0.0
 40
0
 41
0
  0
VERTEX
  8
0
 10
5.01774
 20
21.5687
 30
0.0
 40
0
 41
0
  0
VERTEX
  8
0
 10
4.99164
 20
21.6153
 30
0.0
 40
0
 41
0
  0
VERTEX
  8
0
 10
4.95036
 20
21.6531
 30
0.0
 40
0
 41
0
  0
VERTEX
  8
0
 10
4.91
 20
21.6761
 30
0.0
 40
0
 41
0
  0
VERTEX
  8
0
 10
4.89578
 20
21.6817
 30
0.0
 40
0
 41
0
  0
VERTEX
  8
0
 10
4.89578
 20
21.6847
 30
0.0
 40
0
 41
0
  0
VERTEX
  8
0
 10
4.90918
 20
21.691
 30
0.0
 40
0
 41
0
  0
VERTEX
  8
0
 10
4.94624
 20
21.7168
 30
0.0
 40
0
 41
0
  0
VERTEX
  8
0
 10
4.97928
 20
21.7543
 30
0.0
 40
0
 41
0
  0
VERTEX
  8
0
 10
4.99729
 20
21.795
 30
0.0
 40
0
 41
0
  0
VERTEX
  8
0
 10
5.00276
 20
21.8263
 30
0.0
 40
0
 41
0
  0
VERTEX
  8
0
 10
5.00276
 20
21.8365
 30
0.0
 40
0
 41
0
  0
VERTEX
  8
0
 10
5.00276
 20
21.8514
 30
0.0
 40
0
 41
0
  0
VERTEX
  8
0
 10
4.99094
 20
21.8958
 30
0.0
 40
0
 41
0
  0
VERTEX
  8
0
 10
4.95557
 20
21.9469
 30
0.0
 40
0
 41
0
  0
VERTEX
  8
0
 10
4.89654
 20
21.9829
 30
0.0
 40
0
 41
0
  0
VERTEX
  8
0
 10
4.83458
 20
21.9965
 30
0.0
 40
0
 41
0
  0
VERTEX
  8
0
 10
4.81396
 20
21.9965
 30
0.0
 40
0
 41
0
  0
VERTEX
  8
0
 10
4.8036
 20
21.9965
 30
0.0
 40
0
 41
0
  0
VERTEX
  8
0
 10
4.77251
 20
21.9933
 30
0.0
 40
0
 41
0
  0
VERTEX
  8
0
 10
4.73438
 20
21.984
 30
0.0
 40
0
 41
0
  0
VERTEX
  8
0
 10
4.70019
 20
21.969
 30
0.0
 40
0
 41
0
  0
VERTEX
  8
0
 10
4.67068
 20
21.9488
 30
0.0
 40
0
 41
0
  0
VERTEX
  8
0
 10
4.64649
 20
21.9236
 30
0.0
 40
0
 41
0
  0
VERTEX
  8
0
 10
4.62831
 20
21.8942
 30
0.0
 40
0
 41
0
  0
VERTEX
  8
0
 10
4.61692
 20
21.8606
 30
0.0
 40
0
 41
0
  0
VERTEX
  8
0
 10
4.61301
 20
21.8328
 30
0.0
 40
0
 41
0
  0
VERTEX
  8
0
 10
4.61301
 20
21.8236
 30
0.0
 40
0
 41
0
  0
VERTEX
  8
0
 10
4.61301
 20
21.8132
 30
0.0
 40
0
 41
0
  0
VERTEX
  8
0
 10
4.61893
 20
21.7819
 30
0.0
 40
0
 41
0
  0
VERTEX
  8
0
 10
4.63743
 20
21.7424
 30
0.0
 40
0
 41
0
  0
VERTEX
  8
0
 10
4.66938
 20
21.7069
 30
0.0
 40
0
 41
0
  0
VERTEX
  8
0
 10
4.7035
 20
21.6835
 30
0.0
 40
0
 41
0
  0
VERTEX
  8
0
 10
4.71588
 20
21.6778
 30
0.0
 40
0
 41
0
  0
VERTEX
  8
0
 10
4.71696
 20
21.6747
 30
0.0
 40
0
 41
0
  0
VERTEX
  8
0
 10
4.70281
 20
21.6688
 30
0.0
 40
0
 41
0
  0
VERTEX
  8
0
 10
4.66297
 20
21.6447
 30
0.0
 40
0
 41
0
  0
VERTEX
  8
0
 10
4.62235
 20
21.6057
 30
0.0
 40
0
 41
0
  0
VERTEX
  8
0
 10
4.59674
 20
21.5576
 30
0.0
 40
0
 41
0
  0
VERTEX
  8
0
 10
4.58783
 20
21.5149
 30
0.0
 40
0
 41
0
  0
VERTEX
  8
0
 10
4.58783
 20
21.5007
 30
0.0
 40
0
 41
0
  0
VERTEX
  8
0
 10
4.58783
 20
21.4919
 30
0.0
 40
0
 41
0
  0
VERTEX
  8
0
 10
4.59158
 20
21.4658
 30
0.0
 40
0
 41
0
  0
VERTEX
  8
0
 10
4.60275
 20
21.4331
 30
0.0
 40
0
 41
0
  0
VERTEX
  8
0
 10
4.62093
 20
21.4032
 30
0.0
 40
0
 41
0
  0
VERTEX
  8
0
 10
4.64583
 20
21.3769
 30
0.0
 40
0
 41
0
  0
VERTEX
  8
0
 10
4.67708
 20
21.3553
 30
0.0
 40
0
 41
0
  0
VERTEX
  8
0
 10
4.71442
 20
21.3388
 30
0.0
 40
0
 41
0
  0
VERTEX
  8
0
 10
4.75749
 20
21.3283
 30
0.0
 40
0
 41
0
  0
VERTEX
  8
0
 10
4.79378
 20
21.3247
 30
0.0
 40
0
 41
0
  0
VERTEX
  8
0
 10
4.80593
 20
21.3247
 30
0.0
 40
0
 41
0
  0
SEQEND
 8
0
  0
POLYLINE
  8
0
 62
     0
 66
     1
 10
0
 20
0
 30
0.0
 70
     1
 40
0
 41
0
  0
VERTEX
  8
0
 10
4.80789
 20
21.3886
 30
0.0
 40
0
 41
0
  0
VERTEX
  8
0
 10
4.79394
 20
21.3886
 30
0.0
 40
0
 41
0
  0
VERTEX
  8
0
 10
4.75217
 20
21.3987
 30
0.0
 40
0
 41
0
  0
VERTEX
  8
0
 10
4.71067
 20
21.4258
 30
0.0
 40
0
 41
0
  0
VERTEX
  8
0
 10
4.68522
 20
21.4654
 30
0.0
 40
0
 41
0
  0
VERTEX
  8
0
 10
4.67736
 20
21.501
 30
0.0
 40
0
 41
0
  0
VERTEX
  8
0
 10
4.6779
 20
21.5126
 30
0.0
 40
0
 41
0
  0
VERTEX
  8
0
 10
4.6779
 20
21.5236
 30
0.0
 40
0
 41
0
  0
VERTEX
  8
0
 10
4.68549
 20
21.5567
 30
0.0
 40
0
 41
0
  0
VERTEX
  8
0
 10
4.7079
 20
21.5946
 30
0.0
 40
0
 41
0
  0
VERTEX
  8
0
 10
4.74451
 20
21.6251
 30
0.0
 40
0
 41
0
  0
VERTEX
  8
0
 10
4.78179
 20
21.6429
 30
0.0
 40
0
 41
0
  0
VERTEX
  8
0
 10
4.79486
 20
21.6467
 30
0.0
 40
0
 41
0
  0
VERTEX
  8
0
 10
4.81
 20
21.6424
 30
0.0
 40
0
 41
0
  0
VERTEX
  8
0
 10
4.85428
 20
21.6251
 30
0.0
 40
0
 41
0
  0
VERTEX
  8
0
 10
4.89931
 20
21.596
 30
0.0
 40
0
 41
0
  0
VERTEX
  8
0
 10
4.92785
 20
21.5567
 30
0.0
 40
0
 41
0
  0
VERTEX
  8
0
 10
4.93788
 20
21.5178
 30
0.0
 40
0
 41
0
  0
VERTEX
  8
0
 10
4.93788
 20
21.5047
 30
0.0
 40
0
 41
0
  0
VERTEX
  8
0
 10
4.93788
 20
21.4932
 30
0.0
 40
0
 41
0
  0
VERTEX
  8
0
 10
4.92865
 20
21.4583
 30
0.0
 40
0
 41
0
  0
VERTEX
  8
0
 10
4.9025
 20
21.4217
 30
0.0
 40
0
 41
0
  0
VERTEX
  8
0
 10
4.86149
 20
21.3974
 30
0.0
 40
0
 41
0
  0
VERTEX
  8
0
 10
4.82129
 20
21.3886
 30
0.0
 40
0
 41
0
  0
VERTEX
  8
0
 10
4.80789
 20
21.3886
 30
0.0
 40
0
 41
0
  0
SEQEND
 8
0
  0
POLYLINE
  8
0
 62
     0
 66
     1
 10
0
 20
0
 30
0.0
 70
     1
 40
0
 41
0
  0
VERTEX
  8
0
 10
4.80897
 20
21.9336
 30
0.0
 40
0
 41
0
  0
VERTEX
  8
0
 10
4.82156
 20
21.9336
 30
0.0
 40
0
 41
0
  0
VERTEX
  8
0
 10
4.85932
 20
21.9243
 30
0.0
 40
0
 41
0
  0
VERTEX
  8
0
 10
4.89339
 20
21.9001
 30
0.0
 40
0
 41
0
  0
VERTEX
  8
0
 10
4.91265
 20
21.8661
 30
0.0
 40
0
 41
0
  0
VERTEX
  8
0
 10
4.91878
 20
21.8374
 30
0.0
 40
0
 41
0
  0
VERTEX
  8
0
 10
4.91878
 20
21.8276
 30
0.0
 40
0
 41
0
  0
VERTEX
  8
0
 10
4.91878
 20
21.8175
 30
0.0
 40
0
 41
0
  0
VERTEX
  8
0
 10
4.91118
 20
21.7869
 30
0.0
 40
0
 41
0
  0
VERTEX
  8
0
 10
4.89031
 20
21.7536
 30
0.0
 40
0
 41
0
  0
VERTEX
  8
0
 10
4.85889
 20
21.7278
 30
0.0
 40
0
 41
0
  0
VERTEX
  8
0
 10
4.82992
 20
21.7131
 30
0.0
 40
0
 41
0
  0
VERTEX
  8
0
 10
4.81982
 20
21.7096
 30
0.0
 40
0
 41
0
  0
VERTEX
  8
0
 10
4.80681
 20
21.7131
 30
0.0
 40
0
 41
0
  0
VERTEX
  8
0
 10
4.76882
 20
21.7276
 30
0.0
 40
0
 41
0
  0
VERTEX
  8
0
 10
4.72976
 20
21.7528
 30
0.0
 40
0
 41
0
  0
VERTEX
  8
0
 10
4.70469
 20
21.7862
 30
0.0
 40
0
 41
0
  0
VERTEX
  8
0
 10
4.6959
 20
21.8187
 30
0.0
 40
0
 41
0
  0
VERTEX
  8
0
 10
4.6959
 20
21.8296
 30
0.0
 40
0
 41
0
  0
VERTEX
  8
0
 10
4.6959
 20
21.8396
 30
0.0
 40
0
 41
0
  0
VERTEX
  8
0
 10
4.70329
 20
21.8696
 30
0.0
 40
0
 41
0
  0
VERTEX
  8
0
 10
4.72499
 20
21.9026
 30
0.0
 40
0
 41
0
  0
VERTEX
  8
0
 10
4.76042
 20
21.9253
 30
0.0
 40
0
 41
0
  0
VERTEX
  8
0
 10
4.79682
 20
21.9336
 30
0.0
 40
0
 41
0
  0
VERTEX
  8
0
 10
4.80897
 20
21.9336
 30
0.0
 40
0
 41
0
  0
SEQEND
 8
0
  0
POLYLINE
  8
0
 62
     0
 66
     1
 10
0
 20
0
 30
0.0
 70
     1
 40
0
 41
0
  0
VERTEX
  8
0
 10
5.29389
 20
21.8197
 30
0.0
 40
0
 41
0
  0
VERTEX
  8
0
 10
5.43994
 20
21.3357
 30
0.0
 40
0
 41
0
  0
VERTEX
  8
0
 10
5.51981
 20
21.3357
 30
0.0
 40
0
 41
0
  0
VERTEX
  8
0
 10
5.59771
 20
21.5657
 30
0.0
 40
0
 41
0
  0
VERTEX
  8
0
 10
5.602
 20
21.5788
 30
0.0
 40
0
 41
0
  0
VERTEX
  8
0
 10
5.62169
 20
21.6433
 30
0.0
 40
0
 41
0
  0
VERTEX
  8
0
 10
5.63878
 20
21.7111
 30
0.0
 40
0
 41
0
  0
VERTEX
  8
0
 10
5.64176
 20
21.7257
 30
0.0
 40
0
 41
0
  0
VERTEX
  8
0
 10
5.64372
 20
21.7257
 30
0.0
 40
0
 41
0
  0
VERTEX
  8
0
 10
5.64675
 20
21.7114
 30
0.0
 40
0
 41
0
  0
VERTEX
  8
0
 10
5.66342
 20
21.645
 30
0.0
 40
0
 41
0
  0
VERTEX
  8
0
 10
5.68246
 20
21.5801
 30
0.0
 40
0
 41
0
  0
VERTEX
  8
0
 10
5.68668
 20
21.5667
 30
0.0
 40
0
 41
0
  0
VERTEX
  8
0
 10
5.76069
 20
21.3357
 30
0.0
 40
0
 41
0
  0
VERTEX
  8
0
 10
5.84076
 20
21.3357
 30
0.0
 40
0
 41
0
  0
VERTEX
  8
0
 10
5.99681
 20
21.8197
 30
0.0
 40
0
 41
0
  0
VERTEX
  8
0
 10
5.90978
 20
21.8197
 30
0.0
 40
0
 41
0
  0
VERTEX
  8
0
 10
5.84076
 20
21.5767
 30
0.0
 40
0
 41
0
  0
VERTEX
  8
0
 10
5.83675
 20
21.5624
 30
0.0
 40
0
 41
0
  0
VERTEX
  8
0
 10
5.81917
 20
21.4953
 30
0.0
 40
0
 41
0
  0
VERTEX
  8
0
 10
5.80567
 20
21.4319
 30
0.0
 40
0
 41
0
  0
VERTEX
  8
0
 10
5.80365
 20
21.4197
 30
0.0
 40
0
 41
0
  0
VERTEX
  8
0
 10
5.80083
 20
21.4197
 30
0.0
 40
0
 41
0
  0
VERTEX
  8
0
 10
5.79807
 20
21.4319
 30
0.0
 40
0
 41
0
  0
VERTEX
  8
0
 10
5.78185
 20
21.4954
 30
0.0
 40
0
 41
0
  0
VERTEX
  8
0
 10
5.76215
 20
21.5632
 30
0.0
 40
0
 41
0
  0
VERTEX
  8
0
 10
5.75765
 20
21.5776
 30
0.0
 40
0
 41
0
  0
VERTEX
  8
0
 10
5.68278
 20
21.8197
 30
0.0
 40
0
 41
0
  0
VERTEX
  8
0
 10
5.60878
 20
21.8197
 30
0.0
 40
0
 41
0
  0
VERTEX
  8
0
 10
5.52979
 20
21.5726
 30
0.0
 40
0
 41
0
  0
VERTEX
  8
0
 10
5.52576
 20
21.5597
 30
0.0
 40
0
 41
0
  0
VERTEX
  8
0
 10
5.48958
 20
21.4319
 30
0.0
 40
0
 41
0
  0
VERTEX
  8
0
 10
5.48682
 20
21.4197
 30
0.0
 40
0
 41
0
  0
VERTEX
  8
0
 10
5.48378
 20
21.4197
 30
0.0
 40
0
 41
0
  0
VERTEX
  8
0
 10
5.48156
 20
21.4322
 30
0.0
 40
0
 41
0
  0
VERTEX
  8
0
 10
5.45128
 20
21.5601
 30
0.0
 40
0
 41
0
  0
VERTEX
  8
0
 10
5.44775
 20
21.5736
 30
0.0
 40
0
 41
0
  0
VERTEX
  8
0
 10
5.38396
 20
21.8197
 30
0.0
 40
0
 41
0
  0
VERTEX
  8
0
 10
5.29389
 20
21.8197
 30
0.0
 40
0
 41
0
  0
SEQEND
 8
0
  0
POLYLINE
  8
0
 62
     0
 66
     1
 10
0
 20
0
 30
0.0
 70
     1
 40
0
 41
0
  0
VERTEX
  8
0
 10
6.17285
 20
21.3357
 30
0.0
 40
0
 41
0
  0
VERTEX
  8
0
 10
6.17285
 20
21.8197
 30
0.0
 40
0
 41
0
  0
VERTEX
  8
0
 10
6.08475
 20
21.8197
 30
0.0
 40
0
 41
0
  0
VERTEX
  8
0
 10
6.08475
 20
21.3357
 30
0.0
 40
0
 41
0
  0
VERTEX
  8
0
 10
6.17285
 20
21.3357
 30
0.0
 40
0
 41
0
  0
SEQEND
 8
0
  0
POLYLINE
  8
0
 62
     0
 66
     1
 10
0
 20
0
 30
0.0
 70
     1
 40
0
 41
0
  0
VERTEX
  8
0
 10
6.12879
 20
22.0107
 30
0.0
 40
0
 41
0
  0
VERTEX
  8
0
 10
6.12326
 20
22.0107
 30
0.0
 40
0
 41
0
  0
VERTEX
  8
0
 10
6.10672
 20
22.0064
 30
0.0
 40
0
 41
0
  0
VERTEX
  8
0
 10
6.08936
 20
21.9947
 30
0.0
 40
0
 41
0
  0
VERTEX
  8
0
 10
6.07796
 20
21.9772
 30
0.0
 40
0
 41
0
  0
VERTEX
  8
0
 10
6.07389
 20
21.961
 30
0.0
 40
0
 41
0
  0
VERTEX
  8
0
 10
6.07389
 20
21.9556
 30
0.0
 40
0
 41
0
  0
VERTEX
  8
0
 10
6.07389
 20
21.9503
 30
0.0
 40
0
 41
0
  0
VERTEX
  8
0
 10
6.07781
 20
21.9344
 30
0.0
 40
0
 41
0
  0
VERTEX
  8
0
 10
6.08871
 20
21.9172
 30
0.0
 40
0
 41
0
  0
VERTEX
  8
0
 10
6.10547
 20
21.9057
 30
0.0
 40
0
 41
0
  0
VERTEX
  8
0
 10
6.12147
 20
21.9015
 30
0.0
 40
0
 41
0
  0
VERTEX
  8
0
 10
6.12685
 20
21.9015
 30
0.0
 40
0
 41
0
  0
VERTEX
  8
0
 10
6.13271
 20
21.9015
 30
0.0
 40
0
 41
0
  0
VERTEX
  8
0
 10
6.15044
 20
21.9057
 30
0.0
 40
0
 41
0
  0
VERTEX
  8
0
 10
6.16824
 20
21.9172
 30
0.0
 40
0
 41
0
  0
VERTEX
  8
0
 10
6.17936
 20
21.9344
 30
0.0
 40
0
 41
0
  0
VERTEX
  8
0
 10
6.18294
 20
21.9503
 30
0.0
 40
0
 41
0
  0
VERTEX
  8
0
 10
6.18283
 20
21.9556
 30
0.0
 40
0
 41
0
  0
VERTEX
  8
0
 10
6.18283
 20
21.961
 30
0.0
 40
0
 41
0
  0
VERTEX
  8
0
 10
6.17899
 20
21.9772
 30
0.0
 40
0
 41
0
  0
VERTEX
  8
0
 10
6.16818
 20
21.9947
 30
0.0
 40
0
 41
0
  0
VERTEX
  8
0
 10
6.15115
 20
22.0064
 30
0.0
 40
0
 41
0
  0
VERTEX
  8
0
 10
6.13439
 20
22.0107
 30
0.0
 40
0
 41
0
  0
VERTEX
  8
0
 10
6.12879
 20
22.0107
 30
0.0
 40
0
 41
0
  0
SEQEND
 8
0
  0
POLYLINE
  8
0
 62
     0
 66
     1
 10
0
 20
0
 30
0.0
 70
     1
 40
0
 41
0
  0
VERTEX
  8
0
 10
6.33871
 20
21.9356
 30
0.0
 40
0
 41
0
  0
VERTEX
  8
0
 10
6.33871
 20
21.8197
 30
0.0
 40
0
 41
0
  0
VERTEX
  8
0
 10
6.26383
 20
21.8197
 30
0.0
 40
0
 41
0
  0
VERTEX
  8
0
 10
6.26383
 20
21.7526
 30
0.0
 40
0
 41
0
  0
VERTEX
  8
0
 10
6.33871
 20
21.7526
 30
0.0
 40
0
 41
0
  0
VERTEX
  8
0
 10
6.33871
 20
21.4887
 30
0.0
 40
0
 41
0
  0
VERTEX
  8
0
 10
6.33871
 20
21.47
 30
0.0
 40
0
 41
0
  0
VERTEX
  8
0
 10
6.34636
 20
21.414
 30
0.0
 40
0
 41
0
  0
VERTEX
  8
0
 10
6.36654
 20
21.3692
 30
0.0
 40
0
 41
0
  0
VERTEX
  8
0
 10
6.37278
 20
21.3626
 30
0.0
 40
0
 41
0
  0
VERTEX
  8
0
 10
6.37804
 20
21.3567
 30
0.0
 40
0
 41
0
  0
VERTEX
  8
0
 10
6.41282
 20
21.3353
 30
0.0
 40
0
 41
0
  0
VERTEX
  8
0
 10
6.45404
 20
21.3257
 30
0.0
 40
0
 41
0
  0
VERTEX
  8
0
 10
6.46783
 20
21.3257
 30
0.0
 40
0
 41
0
  0
VERTEX
  8
0
 10
6.47911
 20
21.3257
 30
0.0
 40
0
 41
0
  0
VERTEX
  8
0
 10
6.51313
 20
21.3292
 30
0.0
 40
0
 41
0
  0
VERTEX
  8
0
 10
6.5415
 20
21.336
 30
0.0
 40
0
 41
0
  0
VERTEX
  8
0
 10
6.54574
 20
21.3376
 30
0.0
 40
0
 41
0
  0
VERTEX
  8
0
 10
6.54183
 20
21.4036
 30
0.0
 40
0
 41
0
  0
VERTEX
  8
0
 10
6.53907
 20
21.4029
 30
0.0
 40
0
 41
0
  0
VERTEX
  8
0
 10
6.50288
 20
21.3978
 30
0.0
 40
0
 41
0
  0
VERTEX
  8
0
 10
6.49083
 20
21.3978
 30
0.0
 40
0
 41
0
  0
VERTEX
  8
0
 10
6.48307
 20
21.3978
 30
0.0
 40
0
 41
0
  0
VERTEX
  8
0
 10
6.45979
 20
21.404
 30
0.0
 40
0
 41
0
  0
VERTEX
  8
0
 10
6.43946
 20
21.4222
 30
0.0
 40
0
 41
0
  0
VERTEX
  8
0
 10
6.42822
 20
21.4517
 30
0.0
 40
0
 41
0
  0
VERTEX
  8
0
 10
6.42486
 20
21.4818
 30
0.0
 40
0
 41
0
  0
VERTEX
  8
0
 10
6.42486
 20
21.4918
 30
0.0
 40
0
 41
0
  0
VERTEX
  8
0
 10
6.42486
 20
21.7526
 30
0.0
 40
0
 41
0
  0
VERTEX
  8
0
 10
6.55072
 20
21.7526
 30
0.0
 40
0
 41
0
  0
VERTEX
  8
0
 10
6.55072
 20
21.8197
 30
0.0
 40
0
 41
0
  0
VERTEX
  8
0
 10
6.42486
 20
21.8197
 30
0.0
 40
0
 41
0
  0
VERTEX
  8
0
 10
6.42486
 20
21.9586
 30
0.0
 40
0
 41
0
  0
VERTEX
  8
0
 10
6.33871
 20
21.9356
 30
0.0
 40
0
 41
0
  0
SEQEND
 8
0
  0
POLYLINE
  8
0
 62
     0
 66
     1
 10
0
 20
0
 30
0.0
 70
     1
 40
0
 41
0
  0
VERTEX
  8
0
 10
6.64968
 20
21.3357
 30
0.0
 40
0
 41
0
  0
VERTEX
  8
0
 10
6.73779
 20
21.3357
 30
0.0
 40
0
 41
0
  0
VERTEX
  8
0
 10
6.73779
 20
21.6276
 30
0.0
 40
0
 41
0
  0
VERTEX
  8
0
 10
6.73779
 20
21.6382
 30
0.0
 40
0
 41
0
  0
VERTEX
  8
0
 10
6.7424
 20
21.6667
 30
0.0
 40
0
 41
0
  0
VERTEX
  8
0
 10
6.74365
 20
21.6697
 30
0.0
 40
0
 41
0
  0
VERTEX
  8
0
 10
6.74664
 20
21.6786
 30
0.0
 40
0
 41
0
  0
VERTEX
  8
0
 10
6.76079
 20
21.7038
 30
0.0
 40
0
 41
0
  0
VERTEX
  8
0
 10
6.78728
 20
21.7317
 30
0.0
 40
0
 41
0
  0
VERTEX
  8
0
 10
6.8214
 20
21.7507
 30
0.0
 40
0
 41
0
  0
VERTEX
  8
0
 10
6.85161
 20
21.7576
 30
0.0
 40
0
 41
0
  0
VERTEX
  8
0
 10
6.86171
 20
21.7576
 30
0.0
 40
0
 41
0
  0
VERTEX
  8
0
 10
6.87478
 20
21.7576
 30
0.0
 40
0
 41
0
  0
VERTEX
  8
0
 10
6.91417
 20
21.7461
 30
0.0
 40
0
 41
0
  0
VERTEX
  8
0
 10
6.94879
 20
21.7149
 30
0.0
 40
0
 41
0
  0
VERTEX
  8
0
 10
6.96783
 20
21.6692
 30
0.0
 40
0
 41
0
  0
VERTEX
  8
0
 10
6.97368
 20
21.6276
 30
0.0
 40
0
 41
0
  0
VERTEX
  8
0
 10
6.97368
 20
21.6137
 30
0.0
 40
0
 41
0
  0
VERTEX
  8
0
 10
6.97368
 20
21.3357
 30
0.0
 40
0
 41
0
  0
VERTEX
  8
0
 10
7.06158
 20
21.3357
 30
0.0
 40
0
 41
0
  0
VERTEX
  8
0
 10
7.06158
 20
21.6238
 30
0.0
 40
0
 41
0
  0
VERTEX
  8
0
 10
7.06158
 20
21.6379
 30
0.0
 40
0
 41
0
  0
VERTEX
  8
0
 10
7.05697
 20
21.6806
 30
0.0
 40
0
 41
0
  0
VERTEX
  8
0
 10
7.04428
 20
21.7264
 30
0.0
 40
0
 41
0
  0
VERTEX
  8
0
 10
7.02522
 20
21.7625
 30
0.0
 40
0
 41
0
  0
VERTEX
  8
0
 10
7.00146
 20
21.7897
 30
0.0
 40
0
 41
0
  0
VERTEX
  8
0
 10
6.97467
 20
21.809
 30
0.0
 40
0
 41
0
  0
VERTEX
  8
0
 10
6.94646
 20
21.8217
 30
0.0
 40
0
 41
0
  0
VERTEX
  8
0
 10
6.91862
 20
21.8285
 30
0.0
 40
0
 41
0
  0
VERTEX
  8
0
 10
6.89919
 20
21.8306
 30
0.0
 40
0
 41
0
  0
VERTEX
  8
0
 10
6.89274
 20
21.8306
 30
0.0
 40
0
 41
0
  0
VERTEX
  8
0
 10
6.88081
 20
21.8306
 30
0.0
 40
0
 41
0
  0
VERTEX
  8
0
 10
6.84511
 20
21.8236
 30
0.0
 40
0
 41
0
  0
VERTEX
  8
0
 10
6.80919
 20
21.8093
 30
0.0
 40
0
 41
0
  0
VERTEX
  8
0
 10
6.80268
 20
21.8056
 30
0.0
 40
0
 41
0
  0
VERTEX
  8
0
 10
6.79596
 20
21.8018
 30
0.0
 40
0
 41
0
  0
VERTEX
  8
0
 10
6.76633
 20
21.7783
 30
0.0
 40
0
 41
0
  0
VERTEX
  8
0
 10
6.74322
 20
21.75
 30
0.0
 40
0
 41
0
  0
VERTEX
  8
0
 10
6.73975
 20
21.7438
 30
0.0
 40
0
 41
0
  0
VERTEX
  8
0
 10
6.73779
 20
21.7438
 30
0.0
 40
0
 41
0
  0
VERTEX
  8
0
 10
6.73779
 20
22.0456
 30
0.0
 40
0
 41
0
  0
VERTEX
  8
0
 10
6.64968
 20
22.0456
 30
0.0
 40
0
 41
0
  0
VERTEX
  8
0
 10
6.64968
 20
21.3357
 30
0.0
 40
0
 41
0
  0
SEQEND
 8
0
  0
POLYLINE
  8
0
 62
     0
 66
     1
 10
0
 20
0
 30
0.0
 70
     1
 40
0
 41
0
  0
VERTEX
  8
0
 10
7.57958
 20
21.3357
 30
0.0
 40
0
 41
0
  0
VERTEX
  8
0
 10
7.66465
 20
21.3357
 30
0.0
 40
0
 41
0
  0
VERTEX
  8
0
 10
7.66465
 20
21.9854
 30
0.0
 40
0
 41
0
  0
VERTEX
  8
0
 10
7.58957
 20
21.9854
 30
0.0
 40
0
 41
0
  0
VERTEX
  8
0
 10
7.44764
 20
21.9094
 30
0.0
 40
0
 41
0
  0
VERTEX
  8
0
 10
7.46457
 20
21.8426
 30
0.0
 40
0
 41
0
  0
VERTEX
  8
0
 10
7.57764
 20
21.9036
 30
0.0
 40
0
 41
0
  0
VERTEX
  8
0
 10
7.57958
 20
21.9036
 30
0.0
 40
0
 41
0
  0
VERTEX
  8
0
 10
7.57958
 20
21.3357
 30
0.0
 40
0
 41
0
  0
SEQEND
 8
0
  0
POLYLINE
  8
0
 62
     0
 66
     1
 10
0
 20
0
 30
0.0
 70
     1
 40
0
 41
0
  0
VERTEX
  8
0
 10
7.92264
 20
21.2958
 30
0.0
 40
0
 41
0
  0
VERTEX
  8
0
 10
8.20258
 20
22.0206
 30
0.0
 40
0
 41
0
  0
VERTEX
  8
0
 10
8.13465
 20
22.0206
 30
0.0
 40
0
 41
0
  0
VERTEX
  8
0
 10
7.85558
 20
21.2958
 30
0.0
 40
0
 41
0
  0
VERTEX
  8
0
 10
7.92264
 20
21.2958
 30
0.0
 40
0
 41
0
  0
SEQEND
 8
0
  0
POLYLINE
  8
0
 62
     0
 66
     1
 10
0
 20
0
 30
0.0
 70
     1
 40
0
 41
0
  0
VERTEX
  8
0
 10
8.59961
 20
21.3357
 30
0.0
 40
0
 41
0
  0
VERTEX
  8
0
 10
8.59961
 20
21.5126
 30
0.0
 40
0
 41
0
  0
VERTEX
  8
0
 10
8.69054
 20
21.5126
 30
0.0
 40
0
 41
0
  0
VERTEX
  8
0
 10
8.69054
 20
21.5817
 30
0.0
 40
0
 41
0
  0
VERTEX
  8
0
 10
8.59961
 20
21.5817
 30
0.0
 40
0
 41
0
  0
VERTEX
  8
0
 10
8.59961
 20
21.9854
 30
0.0
 40
0
 41
0
  0
VERTEX
  8
0
 10
8.50456
 20
21.9854
 30
0.0
 40
0
 41
0
  0
VERTEX
  8
0
 10
8.21463
 20
21.5707
 30
0.0
 40
0
 41
0
  0
VERTEX
  8
0
 10
8.21463
 20
21.5126
 30
0.0
 40
0
 41
0
  0
VERTEX
  8
0
 10
8.5165
 20
21.5126
 30
0.0
 40
0
 41
0
  0
VERTEX
  8
0
 10
8.5165
 20
21.3357
 30
0.0
 40
0
 41
0
  0
VERTEX
  8
0
 10
8.59961
 20
21.3357
 30
0.0
 40
0
 41
0
  0
SEQEND
 8
0
  0
POLYLINE
  8
0
 62
     0
 66
     1
 10
0
 20
0
 30
0.0
 70
     1
 40
0
 41
0
  0
VERTEX
  8
0
 10
8.3036
 20
21.5817
 30
0.0
 40
0
 41
0
  0
VERTEX
  8
0
 10
8.3036
 20
21.5836
 30
0.0
 40
0
 41
0
  0
VERTEX
  8
0
 10
8.46268
 20
21.8047
 30
0.0
 40
0
 41
0
  0
VERTEX
  8
0
 10
8.46718
 20
21.8122
 30
0.0
 40
0
 41
0
  0
VERTEX
  8
0
 10
8.48882
 20
21.8497
 30
0.0
 40
0
 41
0
  0
VERTEX
  8
0
 10
8.5115
 20
21.8911
 30
0.0
 40
0
 41
0
  0
VERTEX
  8
0
 10
8.5165
 20
21.9006
 30
0.0
 40
0
 41
0
  0
VERTEX
  8
0
 10
8.51953
 20
21.9006
 30
0.0
 40
0
 41
0
  0
VERTEX
  8
0
 10
8.51904
 20
21.8921
 30
0.0
 40
0
 41
0
  0
VERTEX
  8
0
 10
8.5165
 20
21.8219
 30
0.0
 40
0
 41
0
  0
VERTEX
  8
0
 10
8.5165
 20
21.7986
 30
0.0
 40
0
 41
0
  0
VERTEX
  8
0
 10
8.5165
 20
21.5817
 30
0.0
 40
0
 41
0
  0
VERTEX
  8
0
 10
8.3036
 20
21.5817
 30
0.0
 40
0
 41
0
  0
SEQEND
 8
0
  0
POLYLINE
  8
0
 62
     0
 66
     1
 10
0
 20
0
 30
0.0
 70
     1
 40
0
 41
0
  0
VERTEX
  8
0
 10
8.8055
 20
22.0115
 30
0.0
 40
0
 41
0
  0
VERTEX
  8
0
 10
8.80279
 20
21.9936
 30
0.0
 40
0
 41
0
  0
VERTEX
  8
0
 10
8.77983
 20
21.8892
 30
0.0
 40
0
 41
0
  0
VERTEX
  8
0
 10
8.7519
 20
21.7914
 30
0.0
 40
0
 41
0
  0
VERTEX
  8
0
 10
8.74669
 20
21.7767
 30
0.0
 40
0
 41
0
  0
VERTEX
  8
0
 10
8.80268
 20
21.7836
 30
0.0
 40
0
 41
0
  0
VERTEX
  8
0
 10
8.80897
 20
21.7944
 30
0.0
 40
0
 41
0
  0
VERTEX
  8
0
 10
8.82531
 20
21.8283
 30
0.0
 40
0
 41
0
  0
VERTEX
  8
0
 10
8.85058
 20
21.8879
 30
0.0
 40
0
 41
0
  0
VERTEX
  8
0
 10
8.87511
 20
21.9546
 30
0.0
 40
0
 41
0
  0
VERTEX
  8
0
 10
8.891
 20
22.004
 30
0.0
 40
0
 41
0
  0
VERTEX
  8
0
 10
8.89556
 20
22.0206
 30
0.0
 40
0
 41
0
  0
VERTEX
  8
0
 10
8.8055
 20
22.0115
 30
0.0
 40
0
 41
0
  0
SEQEND
 8
0
  0
POLYLINE
  8
0
 62
     0
 66
     1
 10
0
 20
0
 30
0.0
 70
     1
 40
0
 41
0
  0
VERTEX
  8
0
 10
8.9535
 20
22.0115
 30
0.0
 40
0
 41
0
  0
VERTEX
  8
0
 10
8.95079
 20
21.9936
 30
0.0
 40
0
 41
0
  0
VERTEX
  8
0
 10
8.92822
 20
21.8892
 30
0.0
 40
0
 41
0
  0
VERTEX
  8
0
 10
8.90001
 20
21.7914
 30
0.0
 40
0
 41
0
  0
VERTEX
  8
0
 10
8.89447
 20
21.7767
 30
0.0
 40
0
 41
0
  0
VERTEX
  8
0
 10
8.95047
 20
21.7836
 30
0.0
 40
0
 41
0
  0
VERTEX
  8
0
 10
8.95682
 20
21.7944
 30
0.0
 40
0
 41
0
  0
VERTEX
  8
0
 10
8.97319
 20
21.8283
 30
0.0
 40
0
 41
0
  0
VERTEX
  8
0
 10
8.99854
 20
21.8879
 30
0.0
 40
0
 41
0
  0
VERTEX
  8
0
 10
9.02311
 20
21.9546
 30
0.0
 40
0
 41
0
  0
VERTEX
  8
0
 10
9.03901
 20
22.004
 30
0.0
 40
0
 41
0
  0
VERTEX
  8
0
 10
9.04357
 20
22.0206
 30
0.0
 40
0
 41
0
  0
VERTEX
  8
0
 10
8.9535
 20
22.0115
 30
0.0
 40
0
 41
0
  0
SEQEND
 8
0
  0
POLYLINE
  8
0
 62
     0
 66
     1
 10
0
 20
0
 30
0.0
 70
     1
 40
0
 41
0
  0
VERTEX
  8
0
 10
9.35053
 20
21.3357
 30
0.0
 40
0
 41
0
  0
VERTEX
  8
0
 10
9.35053
 20
21.6238
 30
0.0
 40
0
 41
0
  0
VERTEX
  8
0
 10
9.35053
 20
21.661
 30
0.0
 40
0
 41
0
  0
VERTEX
  8
0
 10
9.3489
 20
21.7728
 30
0.0
 40
0
 41
0
  0
VERTEX
  8
0
 10
9.34483
 20
21.8803
 30
0.0
 40
0
 41
0
  0
VERTEX
  8
0
 10
9.34358
 20
21.9015
 30
0.0
 40
0
 41
0
  0
VERTEX
  8
0
 10
9.3464
 20
21.9025
 30
0.0
 40
0
 41
0
  0
VERTEX
  8
0
 10
9.35493
 20
21.8843
 30
0.0
 40
0
 41
0
  0
VERTEX
  8
0
 10
9.46072
 20
21.6964
 30
0.0
 40
0
 41
0
  0
VERTEX
  8
0
 10
9.4725
 20
21.6778
 30
0.0
 40
0
 41
0
  0
VERTEX
  8
0
 10
9.68647
 20
21.3357
 30
0.0
 40
0
 41
0
  0
VERTEX
  8
0
 10
9.77436
 20
21.3357
 30
0.0
 40
0
 41
0
  0
VERTEX
  8
0
 10
9.77436
 20
22.0096
 30
0.0
 40
0
 41
0
  0
VERTEX
  8
0
 10
9.69233
 20
22.0096
 30
0.0
 40
0
 41
0
  0
VERTEX
  8
0
 10
9.69233
 20
21.7276
 30
0.0
 40
0
 41
0
  0
VERTEX
  8
0
 10
9.69233
 20
21.6917
 30
0.0
 40
0
 41
0
  0
VERTEX
  8
0
 10
9.69439
 20
21.5835
 30
0.0
 40
0
 41
0
  0
VERTEX
  8
0
 10
9.70036
 20
21.4732
 30
0.0
 40
0
 41
0
  0
VERTEX
  8
0
 10
9.70231
 20
21.4507
 30
0.0
 40
0
 41
0
  0
VERTEX
  8
0
 10
9.70036
 20
21.4497
 30
0.0
 40
0
 41
0
  0
VERTEX
  8
0
 10
9.69239
 20
21.4669
 30
0.0
 40
0
 41
0
  0
VERTEX
  8
0
 10
9.64665
 20
21.5554
 30
0.0
 40
0
 41
0
  0
VERTEX
  8
0
 10
9.59196
 20
21.6489
 30
0.0
 40
0
 41
0
  0
VERTEX
  8
0
 10
9.57949
 20
21.6686
 30
0.0
 40
0
 41
0
  0
VERTEX
  8
0
 10
9.36356
 20
22.0096
 30
0.0
 40
0
 41
0
  0
VERTEX
  8
0
 10
9.2685
 20
22.0096
 30
0.0
 40
0
 41
0
  0
VERTEX
  8
0
 10
9.2685
 20
21.3357
 30
0.0
 40
0
 41
0
  0
VERTEX
  8
0
 10
9.35053
 20
21.3357
 30
0.0
 40
0
 41
0
  0
SEQEND
 8
0
  0
POLYLINE
  8
0
 62
     0
 66
     1
 10
0
 20
0
 30
0.0
 70
     1
 40
0
 41
0
  0
VERTEX
  8
0
 10
10.3123
 20
21.5617
 30
0.0
 40
0
 41
0
  0
VERTEX
  8
0
 10
10.3126
 20
21.5639
 30
0.0
 40
0
 41
0
  0
VERTEX
  8
0
 10
10.3154
 20
21.5931
 30
0.0
 40
0
 41
0
  0
VERTEX
  8
0
 10
10.3154
 20
21.6026
 30
0.0
 40
0
 41
0
  0
VERTEX
  8
0
 10
10.3154
 20
21.621
 30
0.0
 40
0
 41
0
  0
VERTEX
  8
0
 10
10.3063
 20
21.6758
 30
0.0
 40
0
 41
0
  0
VERTEX
  8
0
 10
10.2747
 20
21.75
 30
0.0
 40
0
 41
0
  0
VERTEX
  8
0
 10
10.2134
 20
21.8075
 30
0.0
 40
0
 41
0
  0
VERTEX
  8
0
 10
10.14
 20
21.8306
 30
0.0
 40
0
 41
0
  0
VERTEX
  8
0
 10
10.1155
 20
21.8306
 30
0.0
 40
0
 41
0
  0
VERTEX
  8
0
 10
10.0917
 20
21.8306
 30
0.0
 40
0
 41
0
  0
VERTEX
  8
0
 10
10.0205
 20
21.8103
 30
0.0
 40
0
 41
0
  0
VERTEX
  8
0
 10
9.94911
 20
21.7549
 30
0.0
 40
0
 41
0
  0
VERTEX
  8
0
 10
9.90414
 20
21.6721
 30
0.0
 40
0
 41
0
  0
VERTEX
  8
0
 10
9.88851
 20
21.5953
 30
0.0
 40
0
 41
0
  0
VERTEX
  8
0
 10
9.88851
 20
21.5697
 30
0.0
 40
0
 41
0
  0
VERTEX
  8
0
 10
9.88851
 20
21.5447
 30
0.0
 40
0
 41
0
  0
VERTEX
  8
0
 10
9.90474
 20
21.47
 30
0.0
 40
0
 41
0
  0
VERTEX
  8
0
 10
9.95161
 20
21.3929
 30
0.0
 40
0
 41
0
  0
VERTEX
  8
0
 10
10.0264
 20
21.3433
 30
0.0
 40
0
 41
0
  0
VERTEX
  8
0
 10
10.1013
 20
21.3257
 30
0.0
 40
0
 41
0
  0
VERTEX
  8
0
 10
10.1264
 20
21.3257
 30
0.0
 40
0
 41
0
  0
VERTEX
  8
0
 10
10.1397
 20
21.3257
 30
0.0
 40
0
 41
0
  0
VERTEX
  8
0
 10
10.1796
 20
21.3285
 30
0.0
 40
0
 41
0
  0
VERTEX
  8
0
 10
10.2241
 20
21.3356
 30
0.0
 40
0
 41
0
  0
VERTEX
  8
0
 10
10.2599
 20
21.3451
 30
0.0
 40
0
 41
0
  0
VERTEX
  8
0
 10
10.2807
 20
21.3526
 30
0.0
 40
0
 41
0
  0
VERTEX
  8
0
 10
10.2874
 20
21.3557
 30
0.0
 40
0
 41
0
  0
VERTEX
  8
0
 10
10.2724
 20
21.4186
 30
0.0
 40
0
 41
0
  0
VERTEX
  8
0
 10
10.2642
 20
21.4151
 30
0.0
 40
0
 41
0
  0
VERTEX
  8
0
 10
10.2167
 20
21.401
 30
0.0
 40
0
 41
0
  0
VERTEX
  8
0
 10
10.158
 20
21.3936
 30
0.0
 40
0
 41
0
  0
VERTEX
  8
0
 10
10.1385
 20
21.3936
 30
0.0
 40
0
 41
0
  0
VERTEX
  8
0
 10
10.1228
 20
21.3936
 30
0.0
 40
0
 41
0
  0
VERTEX
  8
0
 10
10.0756
 20
21.4032
 30
0.0
 40
0
 41
0
  0
VERTEX
  8
0
 10
10.0232
 20
21.4331
 30
0.0
 40
0
 41
0
  0
VERTEX
  8
0
 10
9.98682
 20
21.4853
 30
0.0
 40
0
 41
0
  0
VERTEX
  8
0
 10
9.97276
 20
21.5425
 30
0.0
 40
0
 41
0
  0
VERTEX
  8
0
 10
9.9725
 20
21.5617
 30
0.0
 40
0
 41
0
  0
VERTEX
  8
0
 10
10.3123
 20
21.5617
 30
0.0
 40
0
 41
0
  0
SEQEND
 8
0
  0
POLYLINE
  8
0
 62
     0
 66
     1
 10
0
 20
0
 30
0.0
 70
     1
 40
0
 41
0
  0
VERTEX
  8
0
 10
9.97358
 20
21.6246
 30
0.0
 40
0
 41
0
  0
VERTEX
  8
0
 10
9.97493
 20
21.6368
 30
0.0
 40
0
 41
0
  0
VERTEX
  8
0
 10
9.98508
 20
21.6726
 30
0.0
 40
0
 41
0
  0
VERTEX
  8
0
 10
10.0103
 20
21.719
 30
0.0
 40
0
 41
0
  0
VERTEX
  8
0
 10
10.0509
 20
21.7539
 30
0.0
 40
0
 41
0
  0
VERTEX
  8
0
 10
10.0941
 20
21.7676
 30
0.0
 40
0
 41
0
  0
VERTEX
  8
0
 10
10.1086
 20
21.7676
 30
0.0
 40
0
 41
0
  0
VERTEX
  8
0
 10
10.117
 20
21.7676
 30
0.0
 40
0
 41
0
  0
VERTEX
  8
0
 10
10.1422
 20
21.7638
 30
0.0
 40
0
 41
0
  0
VERTEX
  8
0
 10
10.1695
 20
21.7532
 30
0.0
 40
0
 41
0
  0
VERTEX
  8
0
 10
10.1909
 20
21.7371
 30
0.0
 40
0
 41
0
  0
VERTEX
  8
0
 10
10.207
 20
21.7171
 30
0.0
 40
0
 41
0
  0
VERTEX
  8
0
 10
10.2184
 20
21.6944
 30
0.0
 40
0
 41
0
  0
VERTEX
  8
0
 10
10.2258
 20
21.6706
 30
0.0
 40
0
 41
0
  0
VERTEX
  8
0
 10
10.2295
 20
21.6468
 30
0.0
 40
0
 41
0
  0
VERTEX
  8
0
 10
10.2306
 20
21.6301
 30
0.0
 40
0
 41
0
  0
VERTEX
  8
0
 10
10.2305
 20
21.6246
 30
0.0
 40
0
 41
0
  0
VERTEX
  8
0
 10
9.97358
 20
21.6246
 30
0.0
 40
0
 41
0
  0
SEQEND
 8
0
  0
POLYLINE
  8
0
 62
     0
 66
     1
 10
0
 20
0
 30
0.0
 70
     1
 40
0
 41
0
  0
VERTEX
  8
0
 10
10.7645
 20
21.8197
 30
0.0
 40
0
 41
0
  0
VERTEX
  8
0
 10
10.7604
 20
21.7465
 30
0.0
 40
0
 41
0
  0
VERTEX
  8
0
 10
10.7584
 20
21.7465
 30
0.0
 40
0
 41
0
  0
VERTEX
  8
0
 10
10.7542
 20
21.7546
 30
0.0
 40
0
 41
0
  0
VERTEX
  8
0
 10
10.7377
 20
21.7767
 30
0.0
 40
0
 41
0
  0
VERTEX
  8
0
 10
10.7065
 20
21.8036
 30
0.0
 40
0
 41
0
  0
VERTEX
  8
0
 10
10.6634
 20
21.8231
 30
0.0
 40
0
 41
0
  0
VERTEX
  8
0
 10
10.6214
 20
21.8306
 30
0.0
 40
0
 41
0
  0
VERTEX
  8
0
 10
10.6074
 20
21.8306
 30
0.0
 40
0
 41
0
  0
VERTEX
  8
0
 10
10.5871
 20
21.8306
 30
0.0
 40
0
 41
0
  0
VERTEX
  8
0
 10
10.5265
 20
21.8135
 30
0.0
 40
0
 41
0
  0
VERTEX
  8
0
 10
10.4568
 20
21.7636
 30
0.0
 40
0
 41
0
  0
VERTEX
  8
0
 10
10.4079
 20
21.6829
 30
0.0
 40
0
 41
0
  0
VERTEX
  8
0
 10
10.3895
 20
21.601
 30
0.0
 40
0
 41
0
  0
VERTEX
  8
0
 10
10.3895
 20
21.5736
 30
0.0
 40
0
 41
0
  0
VERTEX
  8
0
 10
10.3895
 20
21.5503
 30
0.0
 40
0
 41
0
  0
VERTEX
  8
0
 10
10.4048
 20
21.4803
 30
0.0
 40
0
 41
0
  0
VERTEX
  8
0
 10
10.4474
 20
21.4054
 30
0.0
 40
0
 41
0
  0
VERTEX
  8
0
 10
10.5126
 20
21.3557
 30
0.0
 40
0
 41
0
  0
VERTEX
  8
0
 10
10.5747
 20
21.3376
 30
0.0
 40
0
 41
0
  0
VERTEX
  8
0
 10
10.5954
 20
21.3376
 30
0.0
 40
0
 41
0
  0
VERTEX
  8
0
 10
10.6084
 20
21.3376
 30
0.0
 40
0
 41
0
  0
VERTEX
  8
0
 10
10.6473
 20
21.344
 30
0.0
 40
0
 41
0
  0
VERTEX
  8
0
 10
10.6904
 20
21.3614
 30
0.0
 40
0
 41
0
  0
VERTEX
  8
0
 10
10.7245
 20
21.3871
 30
0.0
 40
0
 41
0
  0
VERTEX
  8
0
 10
10.7444
 20
21.4101
 30
0.0
 40
0
 41
0
  0
VERTEX
  8
0
 10
10.7495
 20
21.4186
 30
0.0
 40
0
 41
0
  0
VERTEX
  8
0
 10
10.7515
 20
21.4186
 30
0.0
 40
0
 41
0
  0
VERTEX
  8
0
 10
10.7515
 20
21.3649
 30
0.0
 40
0
 41
0
  0
VERTEX
  8
0
 10
10.7515
 20
21.3454
 30
0.0
 40
0
 41
0
  0
VERTEX
  8
0
 10
10.7398
 20
21.2869
 30
0.0
 40
0
 41
0
  0
VERTEX
  8
0
 10
10.7072
 20
21.2346
 30
0.0
 40
0
 41
0
  0
VERTEX
  8
0
 10
10.6578
 20
21.205
 30
0.0
 40
0
 41
0
  0
VERTEX
  8
0
 10
10.611
 20
21.1957
 30
0.0
 40
0
 41
0
  0
VERTEX
  8
0
 10
10.5954
 20
21.1957
 30
0.0
 40
0
 41
0
  0
VERTEX
  8
0
 10
10.575
 20
21.1957
 30
0.0
 40
0
 41
0
  0
VERTEX
  8
0
 10
10.5139
 20
21.2072
 30
0.0
 40
0
 41
0
  0
VERTEX
  8
0
 10
10.4615
 20
21.2287
 30
0.0
 40
0
 41
0
  0
VERTEX
  8
0
 10
10.4535
 20
21.2337
 30
0.0
 40
0
 41
0
  0
VERTEX
  8
0
 10
10.4316
 20
21.1667
 30
0.0
 40
0
 41
0
  0
VERTEX
  8
0
 10
10.4393
 20
21.1615
 30
0.0
 40
0
 41
0
  0
VERTEX
  8
0
 10
10.465
 20
21.1496
 30
0.0
 40
0
 41
0
  0
VERTEX
  8
0
 10
10.5048
 20
21.1371
 30
0.0
 40
0
 41
0
  0
VERTEX
  8
0
 10
10.5483
 20
21.1294
 30
0.0
 40
0
 41
0
  0
VERTEX
  8
0
 10
10.5813
 20
21.1268
 30
0.0
 40
0
 41
0
  0
VERTEX
  8
0
 10
10.5924
 20
21.1268
 30
0.0
 40
0
 41
0
  0
VERTEX
  8
0
 10
10.604
 20
21.1268
 30
0.0
 40
0
 41
0
  0
VERTEX
  8
0
 10
10.639
 20
21.1297
 30
0.0
 40
0
 41
0
  0
VERTEX
  8
0
 10
10.6857
 20
21.1393
 30
0.0
 40
0
 41
0
  0
VERTEX
  8
0
 10
10.7297
 20
21.1572
 30
0.0
 40
0
 41
0
  0
VERTEX
  8
0
 10
10.7598
 20
21.1767
 30
0.0
 40
0
 41
0
  0
VERTEX
  8
0
 10
10.7684
 20
21.1847
 30
0.0
 40
0
 41
0
  0
VERTEX
  8
0
 10
10.7772
 20
21.1925
 30
0.0
 40
0
 41
0
  0
VERTEX
  8
0
 10
10.799
 20
21.2214
 30
0.0
 40
0
 41
0
  0
VERTEX
  8
0
 10
10.8205
 20
21.2693
 30
0.0
 40
0
 41
0
  0
VERTEX
  8
0
 10
10.8332
 20
21.3303
 30
0.0
 40
0
 41
0
  0
VERTEX
  8
0
 10
10.8374
 20
21.3868
 30
0.0
 40
0
 41
0
  0
VERTEX
  8
0
 10
10.8374
 20
21.4056
 30
0.0
 40
0
 41
0
  0
VERTEX
  8
0
 10
10.8374
 20
21.6867
 30
0.0
 40
0
 41
0
  0
VERTEX
  8
0
 10
10.8374
 20
21.7056
 30
0.0
 40
0
 41
0
  0
VERTEX
  8
0
 10
10.8386
 20
21.7621
 30
0.0
 40
0
 41
0
  0
VERTEX
  8
0
 10
10.8408
 20
21.8108
 30
0.0
 40
0
 41
0
  0
VERTEX
  8
0
 10
10.8413
 20
21.8197
 30
0.0
 40
0
 41
0
  0
VERTEX
  8
0
 10
10.7645
 20
21.8197
 30
0.0
 40
0
 41
0
  0
SEQEND
 8
0
  0
POLYLINE
  8
0
 62
     0
 66
     1
 10
0
 20
0
 30
0.0
 70
     1
 40
0
 41
0
  0
VERTEX
  8
0
 10
10.7504
 20
21.5417
 30
0.0
 40
0
 41
0
  0
VERTEX
  8
0
 10
10.7504
 20
21.5299
 30
0.0
 40
0
 41
0
  0
VERTEX
  8
0
 10
10.7447
 20
21.4983
 30
0.0
 40
0
 41
0
  0
VERTEX
  8
0
 10
10.7434
 20
21.4946
 30
0.0
 40
0
 41
0
  0
VERTEX
  8
0
 10
10.74
 20
21.4847
 30
0.0
 40
0
 41
0
  0
VERTEX
  8
0
 10
10.7239
 20
21.4571
 30
0.0
 40
0
 41
0
  0
VERTEX
  8
0
 10
10.6955
 20
21.4288
 30
0.0
 40
0
 41
0
  0
VERTEX
  8
0
 10
10.6606
 20
21.411
 30
0.0
 40
0
 41
0
  0
VERTEX
  8
0
 10
10.6312
 20
21.4047
 30
0.0
 40
0
 41
0
  0
VERTEX
  8
0
 10
10.6215
 20
21.4047
 30
0.0
 40
0
 41
0
  0
VERTEX
  8
0
 10
10.6058
 20
21.4047
 30
0.0
 40
0
 41
0
  0
VERTEX
  8
0
 10
10.559
 20
21.4186
 30
0.0
 40
0
 41
0
  0
VERTEX
  8
0
 10
10.5143
 20
21.4561
 30
0.0
 40
0
 41
0
  0
VERTEX
  8
0
 10
10.4874
 20
21.5114
 30
0.0
 40
0
 41
0
  0
VERTEX
  8
0
 10
10.4785
 20
21.5618
 30
0.0
 40
0
 41
0
  0
VERTEX
  8
0
 10
10.4785
 20
21.5786
 30
0.0
 40
0
 41
0
  0
VERTEX
  8
0
 10
10.4785
 20
21.5975
 30
0.0
 40
0
 41
0
  0
VERTEX
  8
0
 10
10.4891
 20
21.6544
 30
0.0
 40
0
 41
0
  0
VERTEX
  8
0
 10
10.5189
 20
21.7121
 30
0.0
 40
0
 41
0
  0
VERTEX
  8
0
 10
10.5644
 20
21.7488
 30
0.0
 40
0
 41
0
  0
VERTEX
  8
0
 10
10.6079
 20
21.7615
 30
0.0
 40
0
 41
0
  0
VERTEX
  8
0
 10
10.6223
 20
21.7615
 30
0.0
 40
0
 41
0
  0
VERTEX
  8
0
 10
10.6333
 20
21.7615
 30
0.0
 40
0
 41
0
  0
VERTEX
  8
0
 10
10.6663
 20
21.7542
 30
0.0
 40
0
 41
0
  0
VERTEX
  8
0
 10
10.7018
 20
21.7342
 30
0.0
 40
0
 41
0
  0
VERTEX
  8
0
 10
10.7283
 20
21.7047
 30
0.0
 40
0
 41
0
  0
VERTEX
  8
0
 10
10.7424
 20
21.6781
 30
0.0
 40
0
 41
0
  0
VERTEX
  8
0
 10
10.7454
 20
21.6686
 30
0.0
 40
0
 41
0
  0
VERTEX
  8
0
 10
10.7464
 20
21.6657
 30
0.0
 40
0
 41
0
  0
VERTEX
  8
0
 10
10.7504
 20
21.6379
 30
0.0
 40
0
 41
0
  0
VERTEX
  8
0
 10
10.7504
 20
21.6288
 30
0.0
 40
0
 41
0
  0
VERTEX
  8
0
 10
10.7504
 20
21.5417
 30
0.0
 40
0
 41
0
  0
SEQEND
 8
0
  0
POLYLINE
  8
0
 62
     0
 66
     1
 10
0
 20
0
 30
0.0
 70
     1
 40
0
 41
0
  0
VERTEX
  8
0
 10
11.3313
 20
21.3357
 30
0.0
 40
0
 41
0
  0
VERTEX
  8
0
 10
11.3298
 20
21.344
 30
0.0
 40
0
 41
0
  0
VERTEX
  8
0
 10
11.3251
 20
21.3904
 30
0.0
 40
0
 41
0
  0
VERTEX
  8
0
 10
11.3235
 20
21.4363
 30
0.0
 40
0
 41
0
  0
VERTEX
  8
0
 10
11.3235
 20
21.4517
 30
0.0
 40
0
 41
0
  0
VERTEX
  8
0
 10
11.3235
 20
21.6326
 30
0.0
 40
0
 41
0
  0
VERTEX
  8
0
 10
11.3235
 20
21.6417
 30
0.0
 40
0
 41
0
  0
VERTEX
  8
0
 10
11.3216
 20
21.669
 30
0.0
 40
0
 41
0
  0
VERTEX
  8
0
 10
11.3155
 20
21.7044
 30
0.0
 40
0
 41
0
  0
VERTEX
  8
0
 10
11.3043
 20
21.7379
 30
0.0
 40
0
 41
0
  0
VERTEX
  8
0
 10
11.2869
 20
21.7679
 30
0.0
 40
0
 41
0
  0
VERTEX
  8
0
 10
11.2627
 20
21.7935
 30
0.0
 40
0
 41
0
  0
VERTEX
  8
0
 10
11.2306
 20
21.8132
 30
0.0
 40
0
 41
0
  0
VERTEX
  8
0
 10
11.1898
 20
21.826
 30
0.0
 40
0
 41
0
  0
VERTEX
  8
0
 10
11.152
 20
21.8306
 30
0.0
 40
0
 41
0
  0
VERTEX
  8
0
 10
11.1394
 20
21.8306
 30
0.0
 40
0
 41
0
  0
VERTEX
  8
0
 10
11.1176
 20
21.8306
 30
0.0
 40
0
 41
0
  0
VERTEX
  8
0
 10
11.0521
 20
21.8187
 30
0.0
 40
0
 41
0
  0
VERTEX
  8
0
 10
10.9904
 20
21.794
 30
0.0
 40
0
 41
0
  0
VERTEX
  8
0
 10
10.9804
 20
21.7875
 30
0.0
 40
0
 41
0
  0
VERTEX
  8
0
 10
11.0005
 20
21.7296
 30
0.0
 40
0
 41
0
  0
VERTEX
  8
0
 10
11.009
 20
21.7351
 30
0.0
 40
0
 41
0
  0
VERTEX
  8
0
 10
11.0593
 20
21.7558
 30
0.0
 40
0
 41
0
  0
VERTEX
  8
0
 10
11.1096
 20
21.7657
 30
0.0
 40
0
 41
0
  0
VERTEX
  8
0
 10
11.1264
 20
21.7657
 30
0.0
 40
0
 41
0
  0
VERTEX
  8
0
 10
11.1347
 20
21.7657
 30
0.0
 40
0
 41
0
  0
VERTEX
  8
0
 10
11.1595
 20
21.7625
 30
0.0
 40
0
 41
0
  0
VERTEX
  8
0
 10
11.1853
 20
21.7538
 30
0.0
 40
0
 41
0
  0
VERTEX
  8
0
 10
11.2047
 20
21.7407
 30
0.0
 40
0
 41
0
  0
VERTEX
  8
0
 10
11.2185
 20
21.7246
 30
0.0
 40
0
 41
0
  0
VERTEX
  8
0
 10
11.2277
 20
21.7067
 30
0.0
 40
0
 41
0
  0
VERTEX
  8
0
 10
11.2331
 20
21.6881
 30
0.0
 40
0
 41
0
  0
VERTEX
  8
0
 10
11.2357
 20
21.6699
 30
0.0
 40
0
 41
0
  0
VERTEX
  8
0
 10
11.2364
 20
21.6578
 30
0.0
 40
0
 41
0
  0
VERTEX
  8
0
 10
11.2364
 20
21.6536
 30
0.0
 40
0
 41
0
  0
VERTEX
  8
0
 10
11.2364
 20
21.6436
 30
0.0
 40
0
 41
0
  0
VERTEX
  8
0
 10
11.2053
 20
21.6439
 30
0.0
 40
0
 41
0
  0
VERTEX
  8
0
 10
11.112
 20
21.6325
 30
0.0
 40
0
 41
0
  0
VERTEX
  8
0
 10
11.0208
 20
21.5979
 30
0.0
 40
0
 41
0
  0
VERTEX
  8
0
 10
10.9646
 20
21.5414
 30
0.0
 40
0
 41
0
  0
VERTEX
  8
0
 10
10.9454
 20
21.4832
 30
0.0
 40
0
 41
0
  0
VERTEX
  8
0
 10
10.9454
 20
21.4638
 30
0.0
 40
0
 41
0
  0
VERTEX
  8
0
 10
10.9454
 20
21.451
 30
0.0
 40
0
 41
0
  0
VERTEX
  8
0
 10
10.9548
 20
21.4125
 30
0.0
 40
0
 41
0
  0
VERTEX
  8
0
 10
10.9827
 20
21.3679
 30
0.0
 40
0
 41
0
  0
VERTEX
  8
0
 10
11.029
 20
21.3365
 30
0.0
 40
0
 41
0
  0
VERTEX
  8
0
 10
11.0773
 20
21.3247
 30
0.0
 40
0
 41
0
  0
VERTEX
  8
0
 10
11.0934
 20
21.3247
 30
0.0
 40
0
 41
0
  0
VERTEX
  8
0
 10
11.1055
 20
21.3247
 30
0.0
 40
0
 41
0
  0
VERTEX
  8
0
 10
11.1418
 20
21.3306
 30
0.0
 40
0
 41
0
  0
VERTEX
  8
0
 10
11.1831
 20
21.3465
 30
0.0
 40
0
 41
0
  0
VERTEX
  8
0
 10
11.2165
 20
21.3694
 30
0.0
 40
0
 41
0
  0
VERTEX
  8
0
 10
11.2361
 20
21.3893
 30
0.0
 40
0
 41
0
  0
VERTEX
  8
0
 10
11.2414
 20
21.3967
 30
0.0
 40
0
 41
0
  0
VERTEX
  8
0
 10
11.2445
 20
21.3967
 30
0.0
 40
0
 41
0
  0
VERTEX
  8
0
 10
11.2514
 20
21.3357
 30
0.0
 40
0
 41
0
  0
VERTEX
  8
0
 10
11.3313
 20
21.3357
 30
0.0
 40
0
 41
0
  0
SEQEND
 8
0
  0
POLYLINE
  8
0
 62
     0
 66
     1
 10
0
 20
0
 30
0.0
 70
     1
 40
0
 41
0
  0
VERTEX
  8
0
 10
11.2384
 20
21.4988
 30
0.0
 40
0
 41
0
  0
VERTEX
  8
0
 10
11.2384
 20
21.4917
 30
0.0
 40
0
 41
0
  0
VERTEX
  8
0
 10
11.2342
 20
21.4729
 30
0.0
 40
0
 41
0
  0
VERTEX
  8
0
 10
11.2334
 20
21.4707
 30
0.0
 40
0
 41
0
  0
VERTEX
  8
0
 10
11.2307
 20
21.4628
 30
0.0
 40
0
 41
0
  0
VERTEX
  8
0
 10
11.2181
 20
21.4407
 30
0.0
 40
0
 41
0
  0
VERTEX
  8
0
 10
11.1933
 20
21.4149
 30
0.0
 40
0
 41
0
  0
VERTEX
  8
0
 10
11.1593
 20
21.3967
 30
0.0
 40
0
 41
0
  0
VERTEX
  8
0
 10
11.1271
 20
21.3897
 30
0.0
 40
0
 41
0
  0
VERTEX
  8
0
 10
11.1164
 20
21.3897
 30
0.0
 40
0
 41
0
  0
VERTEX
  8
0
 10
11.1084
 20
21.3897
 30
0.0
 40
0
 41
0
  0
VERTEX
  8
0
 10
11.0845
 20
21.3949
 30
0.0
 40
0
 41
0
  0
VERTEX
  8
0
 10
11.0581
 20
21.4104
 30
0.0
 40
0
 41
0
  0
VERTEX
  8
0
 10
11.0402
 20
21.4365
 30
0.0
 40
0
 41
0
  0
VERTEX
  8
0
 10
11.0335
 20
21.4644
 30
0.0
 40
0
 41
0
  0
VERTEX
  8
0
 10
11.0335
 20
21.4737
 30
0.0
 40
0
 41
0
  0
VERTEX
  8
0
 10
11.0335
 20
21.4817
 30
0.0
 40
0
 41
0
  0
VERTEX
  8
0
 10
11.0384
 20
21.5056
 30
0.0
 40
0
 41
0
  0
VERTEX
  8
0
 10
11.052
 20
21.5307
 30
0.0
 40
0
 41
0
  0
VERTEX
  8
0
 10
11.073
 20
21.55
 30
0.0
 40
0
 41
0
  0
VERTEX
  8
0
 10
11.1
 20
21.5642
 30
0.0
 40
0
 41
0
  0
VERTEX
  8
0
 10
11.1314
 20
21.5739
 30
0.0
 40
0
 41
0
  0
VERTEX
  8
0
 10
11.1659
 20
21.5797
 30
0.0
 40
0
 41
0
  0
VERTEX
  8
0
 10
11.202
 20
21.5825
 30
0.0
 40
0
 41
0
  0
VERTEX
  8
0
 10
11.2293
 20
21.5829
 30
0.0
 40
0
 41
0
  0
VERTEX
  8
0
 10
11.2384
 20
21.5826
 30
0.0
 40
0
 41
0
  0
VERTEX
  8
0
 10
11.2384
 20
21.4988
 30
0.0
 40
0
 41
0
  0
SEQEND
 8
0
  0
POLYLINE
  8
0
 62
     0
 66
     1
 10
0
 20
0
 30
0.0
 70
     1
 40
0
 41
0
  0
VERTEX
  8
0
 10
11.4813
 20
21.9356
 30
0.0
 40
0
 41
0
  0
VERTEX
  8
0
 10
11.4813
 20
21.8197
 30
0.0
 40
0
 41
0
  0
VERTEX
  8
0
 10
11.4065
 20
21.8197
 30
0.0
 40
0
 41
0
  0
VERTEX
  8
0
 10
11.4065
 20
21.7526
 30
0.0
 40
0
 41
0
  0
VERTEX
  8
0
 10
11.4813
 20
21.7526
 30
0.0
 40
0
 41
0
  0
VERTEX
  8
0
 10
11.4813
 20
21.4887
 30
0.0
 40
0
 41
0
  0
VERTEX
  8
0
 10
11.4813
 20
21.47
 30
0.0
 40
0
 41
0
  0
VERTEX
  8
0
 10
11.489
 20
21.414
 30
0.0
 40
0
 41
0
  0
VERTEX
  8
0
 10
11.5092
 20
21.3692
 30
0.0
 40
0
 41
0
  0
VERTEX
  8
0
 10
11.5154
 20
21.3626
 30
0.0
 40
0
 41
0
  0
VERTEX
  8
0
 10
11.5207
 20
21.3567
 30
0.0
 40
0
 41
0
  0
VERTEX
  8
0
 10
11.5554
 20
21.3353
 30
0.0
 40
0
 41
0
  0
VERTEX
  8
0
 10
11.5967
 20
21.3257
 30
0.0
 40
0
 41
0
  0
VERTEX
  8
0
 10
11.6105
 20
21.3257
 30
0.0
 40
0
 41
0
  0
VERTEX
  8
0
 10
11.6217
 20
21.3257
 30
0.0
 40
0
 41
0
  0
VERTEX
  8
0
 10
11.6558
 20
21.3292
 30
0.0
 40
0
 41
0
  0
VERTEX
  8
0
 10
11.6841
 20
21.336
 30
0.0
 40
0
 41
0
  0
VERTEX
  8
0
 10
11.6884
 20
21.3376
 30
0.0
 40
0
 41
0
  0
VERTEX
  8
0
 10
11.6845
 20
21.4036
 30
0.0
 40
0
 41
0
  0
VERTEX
  8
0
 10
11.6817
 20
21.4029
 30
0.0
 40
0
 41
0
  0
VERTEX
  8
0
 10
11.6455
 20
21.3978
 30
0.0
 40
0
 41
0
  0
VERTEX
  8
0
 10
11.6335
 20
21.3978
 30
0.0
 40
0
 41
0
  0
VERTEX
  8
0
 10
11.6257
 20
21.3978
 30
0.0
 40
0
 41
0
  0
VERTEX
  8
0
 10
11.6024
 20
21.404
 30
0.0
 40
0
 41
0
  0
VERTEX
  8
0
 10
11.5821
 20
21.4222
 30
0.0
 40
0
 41
0
  0
VERTEX
  8
0
 10
11.5709
 20
21.4517
 30
0.0
 40
0
 41
0
  0
VERTEX
  8
0
 10
11.5675
 20
21.4818
 30
0.0
 40
0
 41
0
  0
VERTEX
  8
0
 10
11.5675
 20
21.4918
 30
0.0
 40
0
 41
0
  0
VERTEX
  8
0
 10
11.5675
 20
21.7526
 30
0.0
 40
0
 41
0
  0
VERTEX
  8
0
 10
11.6934
 20
21.7526
 30
0.0
 40
0
 41
0
  0
VERTEX
  8
0
 10
11.6934
 20
21.8197
 30
0.0
 40
0
 41
0
  0
VERTEX
  8
0
 10
11.5675
 20
21.8197
 30
0.0
 40
0
 41
0
  0
VERTEX
  8
0
 10
11.5675
 20
21.9586
 30
0.0
 40
0
 41
0
  0
VERTEX
  8
0
 10
11.4813
 20
21.9356
 30
0.0
 40
0
 41
0
  0
SEQEND
 8
0
  0
POLYLINE
  8
0
 62
     0
 66
     1
 10
0
 20
0
 30
0.0
 70
     1
 40
0
 41
0
  0
VERTEX
  8
0
 10
11.8804
 20
21.3357
 30
0.0
 40
0
 41
0
  0
VERTEX
  8
0
 10
11.8804
 20
21.8197
 30
0.0
 40
0
 41
0
  0
VERTEX
  8
0
 10
11.7923
 20
21.8197
 30
0.0
 40
0
 41
0
  0
VERTEX
  8
0
 10
11.7923
 20
21.3357
 30
0.0
 40
0
 41
0
  0
VERTEX
  8
0
 10
11.8804
 20
21.3357
 30
0.0
 40
0
 41
0
  0
SEQEND
 8
0
  0
POLYLINE
  8
0
 62
     0
 66
     1
 10
0
 20
0
 30
0.0
 70
     1
 40
0
 41
0
  0
VERTEX
  8
0
 10
11.8364
 20
22.0107
 30
0.0
 40
0
 41
0
  0
VERTEX
  8
0
 10
11.8308
 20
22.0107
 30
0.0
 40
0
 41
0
  0
VERTEX
  8
0
 10
11.8143
 20
22.0064
 30
0.0
 40
0
 41
0
  0
VERTEX
  8
0
 10
11.7969
 20
21.9947
 30
0.0
 40
0
 41
0
  0
VERTEX
  8
0
 10
11.7855
 20
21.9772
 30
0.0
 40
0
 41
0
  0
VERTEX
  8
0
 10
11.7815
 20
21.961
 30
0.0
 40
0
 41
0
  0
VERTEX
  8
0
 10
11.7815
 20
21.9556
 30
0.0
 40
0
 41
0
  0
VERTEX
  8
0
 10
11.7815
 20
21.9503
 30
0.0
 40
0
 41
0
  0
VERTEX
  8
0
 10
11.7854
 20
21.9344
 30
0.0
 40
0
 41
0
  0
VERTEX
  8
0
 10
11.7963
 20
21.9172
 30
0.0
 40
0
 41
0
  0
VERTEX
  8
0
 10
11.813
 20
21.9057
 30
0.0
 40
0
 41
0
  0
VERTEX
  8
0
 10
11.829
 20
21.9015
 30
0.0
 40
0
 41
0
  0
VERTEX
  8
0
 10
11.8344
 20
21.9015
 30
0.0
 40
0
 41
0
  0
VERTEX
  8
0
 10
11.8403
 20
21.9015
 30
0.0
 40
0
 41
0
  0
VERTEX
  8
0
 10
11.858
 20
21.9057
 30
0.0
 40
0
 41
0
  0
VERTEX
  8
0
 10
11.8758
 20
21.9172
 30
0.0
 40
0
 41
0
  0
VERTEX
  8
0
 10
11.8869
 20
21.9344
 30
0.0
 40
0
 41
0
  0
VERTEX
  8
0
 10
11.8905
 20
21.9503
 30
0.0
 40
0
 41
0
  0
VERTEX
  8
0
 10
11.8904
 20
21.9556
 30
0.0
 40
0
 41
0
  0
VERTEX
  8
0
 10
11.8904
 20
21.961
 30
0.0
 40
0
 41
0
  0
VERTEX
  8
0
 10
11.8866
 20
21.9772
 30
0.0
 40
0
 41
0
  0
VERTEX
  8
0
 10
11.8758
 20
21.9947
 30
0.0
 40
0
 41
0
  0
VERTEX
  8
0
 10
11.8587
 20
22.0064
 30
0.0
 40
0
 41
0
  0
VERTEX
  8
0
 10
11.842
 20
22.0107
 30
0.0
 40
0
 41
0
  0
VERTEX
  8
0
 10
11.8364
 20
22.0107
 30
0.0
 40
0
 41
0
  0
SEQEND
 8
0
  0
POLYLINE
  8
0
 62
     0
 66
     1
 10
0
 20
0
 30
0.0
 70
     1
 40
0
 41
0
  0
VERTEX
  8
0
 10
11.9664
 20
21.8197
 30
0.0
 40
0
 41
0
  0
VERTEX
  8
0
 10
12.1504
 20
21.3357
 30
0.0
 40
0
 41
0
  0
VERTEX
  8
0
 10
12.2344
 20
21.3357
 30
0.0
 40
0
 41
0
  0
VERTEX
  8
0
 10
12.4243
 20
21.8197
 30
0.0
 40
0
 41
0
  0
VERTEX
  8
0
 10
12.3323
 20
21.8197
 30
0.0
 40
0
 41
0
  0
VERTEX
  8
0
 10
12.2383
 20
21.5478
 30
0.0
 40
0
 41
0
  0
VERTEX
  8
0
 10
12.2343
 20
21.5367
 30
0.0
 40
0
 41
0
  0
VERTEX
  8
0
 10
12.2001
 20
21.4336
 30
0.0
 40
0
 41
0
  0
VERTEX
  8
0
 10
12.1973
 20
21.4236
 30
0.0
 40
0
 41
0
  0
VERTEX
  8
0
 10
12.1943
 20
21.4236
 30
0.0
 40
0
 41
0
  0
VERTEX
  8
0
 10
12.1918
 20
21.4336
 30
0.0
 40
0
 41
0
  0
VERTEX
  8
0
 10
12.1594
 20
21.5367
 30
0.0
 40
0
 41
0
  0
VERTEX
  8
0
 10
12.1554
 20
21.5478
 30
0.0
 40
0
 41
0
  0
VERTEX
  8
0
 10
12.0604
 20
21.8197
 30
0.0
 40
0
 41
0
  0
VERTEX
  8
0
 10
11.9664
 20
21.8197
 30
0.0
 40
0
 41
0
  0
SEQEND
 8
0
  0
POLYLINE
  8
0
 62
     0
 66
     1
 10
0
 20
0
 30
0.0
 70
     1
 40
0
 41
0
  0
VERTEX
  8
0
 10
12.8862
 20
21.5617
 30
0.0
 40
0
 41
0
  0
VERTEX
  8
0
 10
12.8864
 20
21.5639
 30
0.0
 40
0
 41
0
  0
VERTEX
  8
0
 10
12.8892
 20
21.5931
 30
0.0
 40
0
 41
0
  0
VERTEX
  8
0
 10
12.8892
 20
21.6026
 30
0.0
 40
0
 41
0
  0
VERTEX
  8
0
 10
12.8892
 20
21.621
 30
0.0
 40
0
 41
0
  0
VERTEX
  8
0
 10
12.8802
 20
21.6758
 30
0.0
 40
0
 41
0
  0
VERTEX
  8
0
 10
12.8485
 20
21.75
 30
0.0
 40
0
 41
0
  0
VERTEX
  8
0
 10
12.7872
 20
21.8075
 30
0.0
 40
0
 41
0
  0
VERTEX
  8
0
 10
12.7138
 20
21.8306
 30
0.0
 40
0
 41
0
  0
VERTEX
  8
0
 10
12.6893
 20
21.8306
 30
0.0
 40
0
 41
0
  0
VERTEX
  8
0
 10
12.6656
 20
21.8306
 30
0.0
 40
0
 41
0
  0
VERTEX
  8
0
 10
12.5943
 20
21.8103
 30
0.0
 40
0
 41
0
  0
VERTEX
  8
0
 10
12.5229
 20
21.7549
 30
0.0
 40
0
 41
0
  0
VERTEX
  8
0
 10
12.478
 20
21.6721
 30
0.0
 40
0
 41
0
  0
VERTEX
  8
0
 10
12.4623
 20
21.5953
 30
0.0
 40
0
 41
0
  0
VERTEX
  8
0
 10
12.4623
 20
21.5697
 30
0.0
 40
0
 41
0
  0
VERTEX
  8
0
 10
12.4623
 20
21.5447
 30
0.0
 40
0
 41
0
  0
VERTEX
  8
0
 10
12.4786
 20
21.47
 30
0.0
 40
0
 41
0
  0
VERTEX
  8
0
 10
12.5254
 20
21.3929
 30
0.0
 40
0
 41
0
  0
VERTEX
  8
0
 10
12.6002
 20
21.3433
 30
0.0
 40
0
 41
0
  0
VERTEX
  8
0
 10
12.6752
 20
21.3257
 30
0.0
 40
0
 41
0
  0
VERTEX
  8
0
 10
12.7002
 20
21.3257
 30
0.0
 40
0
 41
0
  0
VERTEX
  8
0
 10
12.7135
 20
21.3257
 30
0.0
 40
0
 41
0
  0
VERTEX
  8
0
 10
12.7535
 20
21.3285
 30
0.0
 40
0
 41
0
  0
VERTEX
  8
0
 10
12.798
 20
21.3356
 30
0.0
 40
0
 41
0
  0
VERTEX
  8
0
 10
12.8338
 20
21.3451
 30
0.0
 40
0
 41
0
  0
VERTEX
  8
0
 10
12.8545
 20
21.3526
 30
0.0
 40
0
 41
0
  0
VERTEX
  8
0
 10
12.8612
 20
21.3557
 30
0.0
 40
0
 41
0
  0
VERTEX
  8
0
 10
12.8462
 20
21.4186
 30
0.0
 40
0
 41
0
  0
VERTEX
  8
0
 10
12.838
 20
21.4151
 30
0.0
 40
0
 41
0
  0
VERTEX
  8
0
 10
12.7905
 20
21.401
 30
0.0
 40
0
 41
0
  0
VERTEX
  8
0
 10
12.7319
 20
21.3936
 30
0.0
 40
0
 41
0
  0
VERTEX
  8
0
 10
12.7123
 20
21.3936
 30
0.0
 40
0
 41
0
  0
VERTEX
  8
0
 10
12.6966
 20
21.3936
 30
0.0
 40
0
 41
0
  0
VERTEX
  8
0
 10
12.6495
 20
21.4032
 30
0.0
 40
0
 41
0
  0
VERTEX
  8
0
 10
12.597
 20
21.4331
 30
0.0
 40
0
 41
0
  0
VERTEX
  8
0
 10
12.5607
 20
21.4853
 30
0.0
 40
0
 41
0
  0
VERTEX
  8
0
 10
12.5466
 20
21.5425
 30
0.0
 40
0
 41
0
  0
VERTEX
  8
0
 10
12.5463
 20
21.5617
 30
0.0
 40
0
 41
0
  0
VERTEX
  8
0
 10
12.8862
 20
21.5617
 30
0.0
 40
0
 41
0
  0
SEQEND
 8
0
  0
POLYLINE
  8
0
 62
     0
 66
     1
 10
0
 20
0
 30
0.0
 70
     1
 40
0
 41
0
  0
VERTEX
  8
0
 10
12.5474
 20
21.6246
 30
0.0
 40
0
 41
0
  0
VERTEX
  8
0
 10
12.5488
 20
21.6368
 30
0.0
 40
0
 41
0
  0
VERTEX
  8
0
 10
12.5589
 20
21.6726
 30
0.0
 40
0
 41
0
  0
VERTEX
  8
0
 10
12.5842
 20
21.719
 30
0.0
 40
0
 41
0
  0
VERTEX
  8
0
 10
12.6247
 20
21.7539
 30
0.0
 40
0
 41
0
  0
VERTEX
  8
0
 10
12.668
 20
21.7676
 30
0.0
 40
0
 41
0
  0
VERTEX
  8
0
 10
12.6824
 20
21.7676
 30
0.0
 40
0
 41
0
  0
VERTEX
  8
0
 10
12.6908
 20
21.7676
 30
0.0
 40
0
 41
0
  0
VERTEX
  8
0
 10
12.716
 20
21.7638
 30
0.0
 40
0
 41
0
  0
VERTEX
  8
0
 10
12.7433
 20
21.7532
 30
0.0
 40
0
 41
0
  0
VERTEX
  8
0
 10
12.7647
 20
21.7371
 30
0.0
 40
0
 41
0
  0
VERTEX
  8
0
 10
12.7808
 20
21.7171
 30
0.0
 40
0
 41
0
  0
VERTEX
  8
0
 10
12.7922
 20
21.6944
 30
0.0
 40
0
 41
0
  0
VERTEX
  8
0
 10
12.7996
 20
21.6706
 30
0.0
 40
0
 41
0
  0
VERTEX
  8
0
 10
12.8034
 20
21.6468
 30
0.0
 40
0
 41
0
  0
VERTEX
  8
0
 10
12.8044
 20
21.6301
 30
0.0
 40
0
 41
0
  0
VERTEX
  8
0
 10
12.8044
 20
21.6246
 30
0.0
 40
0
 41
0
  0
VERTEX
  8
0
 10
12.5474
 20
21.6246
 30
0.0
 40
0
 41
0
  0
SEQEND
 8
0
  0
POLYLINE
  8
0
 62
     0
 66
     1
 10
0
 20
0
 30
0.0
 70
     1
 40
0
 41
0
  0
VERTEX
  8
0
 10
13.2133
 20
21.3357
 30
0.0
 40
0
 41
0
  0
VERTEX
  8
0
 10
13.3003
 20
21.3357
 30
0.0
 40
0
 41
0
  0
VERTEX
  8
0
 10
13.3003
 20
21.6276
 30
0.0
 40
0
 41
0
  0
VERTEX
  8
0
 10
13.3823
 20
21.6276
 30
0.0
 40
0
 41
0
  0
VERTEX
  8
0
 10
13.3952
 20
21.6271
 30
0.0
 40
0
 41
0
  0
VERTEX
  8
0
 10
13.4339
 20
21.619
 30
0.0
 40
0
 41
0
  0
VERTEX
  8
0
 10
13.4718
 20
21.5958
 30
0.0
 40
0
 41
0
  0
VERTEX
  8
0
 10
13.4988
 20
21.556
 30
0.0
 40
0
 41
0
  0
VERTEX
  8
0
 10
13.514
 20
21.5119
 30
0.0
 40
0
 41
0
  0
VERTEX
  8
0
 10
13.5173
 20
21.4968
 30
0.0
 40
0
 41
0
  0
VERTEX
  8
0
 10
13.5206
 20
21.4822
 30
0.0
 40
0
 41
0
  0
VERTEX
  8
0
 10
13.5307
 20
21.4389
 30
0.0
 40
0
 41
0
  0
VERTEX
  8
0
 10
13.5427
 20
21.3919
 30
0.0
 40
0
 41
0
  0
VERTEX
  8
0
 10
13.5532
 20
21.3571
 30
0.0
 40
0
 41
0
  0
VERTEX
  8
0
 10
13.5595
 20
21.3406
 30
0.0
 40
0
 41
0
  0
VERTEX
  8
0
 10
13.5622
 20
21.3357
 30
0.0
 40
0
 41
0
  0
VERTEX
  8
0
 10
13.6523
 20
21.3357
 30
0.0
 40
0
 41
0
  0
VERTEX
  8
0
 10
13.6489
 20
21.3421
 30
0.0
 40
0
 41
0
  0
VERTEX
  8
0
 10
13.6413
 20
21.3624
 30
0.0
 40
0
 41
0
  0
VERTEX
  8
0
 10
13.6292
 20
21.4028
 30
0.0
 40
0
 41
0
  0
VERTEX
  8
0
 10
13.6156
 20
21.4558
 30
0.0
 40
0
 41
0
  0
VERTEX
  8
0
 10
13.6039
 20
21.5044
 30
0.0
 40
0
 41
0
  0
VERTEX
  8
0
 10
13.6002
 20
21.5206
 30
0.0
 40
0
 41
0
  0
VERTEX
  8
0
 10
13.5974
 20
21.5329
 30
0.0
 40
0
 41
0
  0
VERTEX
  8
0
 10
13.5852
 20
21.5689
 30
0.0
 40
0
 41
0
  0
VERTEX
  8
0
 10
13.5641
 20
21.6082
 30
0.0
 40
0
 41
0
  0
VERTEX
  8
0
 10
13.5363
 20
21.6376
 30
0.0
 40
0
 41
0
  0
VERTEX
  8
0
 10
13.5105
 20
21.6535
 30
0.0
 40
0
 41
0
  0
VERTEX
  8
0
 10
13.5013
 20
21.6567
 30
0.0
 40
0
 41
0
  0
VERTEX
  8
0
 10
13.5013
 20
21.6597
 30
0.0
 40
0
 41
0
  0
VERTEX
  8
0
 10
13.5142
 20
21.6642
 30
0.0
 40
0
 41
0
  0
VERTEX
  8
0
 10
13.551
 20
21.6842
 30
0.0
 40
0
 41
0
  0
VERTEX
  8
0
 10
13.5913
 20
21.7213
 30
0.0
 40
0
 41
0
  0
VERTEX
  8
0
 10
13.6183
 20
21.7706
 30
0.0
 40
0
 41
0
  0
VERTEX
  8
0
 10
13.6282
 20
21.8164
 30
0.0
 40
0
 41
0
  0
VERTEX
  8
0
 10
13.6282
 20
21.8317
 30
0.0
 40
0
 41
0
  0
VERTEX
  8
0
 10
13.6282
 20
21.8497
 30
0.0
 40
0
 41
0
  0
VERTEX
  8
0
 10
13.6144
 20
21.9039
 30
0.0
 40
0
 41
0
  0
VERTEX
  8
0
 10
13.5837
 20
21.9521
 30
0.0
 40
0
 41
0
  0
VERTEX
  8
0
 10
13.5753
 20
21.9596
 30
0.0
 40
0
 41
0
  0
VERTEX
  8
0
 10
13.5673
 20
21.9668
 30
0.0
 40
0
 41
0
  0
VERTEX
  8
0
 10
13.5401
 20
21.9843
 30
0.0
 40
0
 41
0
  0
VERTEX
  8
0
 10
13.4968
 20
22.0014
 30
0.0
 40
0
 41
0
  0
VERTEX
  8
0
 10
13.444
 20
22.0114
 30
0.0
 40
0
 41
0
  0
VERTEX
  8
0
 10
13.3961
 20
22.0146
 30
0.0
 40
0
 41
0
  0
VERTEX
  8
0
 10
13.3802
 20
22.0146
 30
0.0
 40
0
 41
0
  0
VERTEX
  8
0
 10
13.3578
 20
22.0146
 30
0.0
 40
0
 41
0
  0
VERTEX
  8
0
 10
13.2908
 20
22.011
 30
0.0
 40
0
 41
0
  0
VERTEX
  8
0
 10
13.2243
 20
22.0029
 30
0.0
 40
0
 41
0
  0
VERTEX
  8
0
 10
13.2133
 20
22.0007
 30
0.0
 40
0
 41
0
  0
VERTEX
  8
0
 10
13.2133
 20
21.3357
 30
0.0
 40
0
 41
0
  0
SEQEND
 8
0
  0
POLYLINE
  8
0
 62
     0
 66
     1
 10
0
 20
0
 30
0.0
 70
     1
 40
0
 41
0
  0
VERTEX
  8
0
 10
13.3003
 20
21.9397
 30
0.0
 40
0
 41
0
  0
VERTEX
  8
0
 10
13.3038
 20
21.9407
 30
0.0
 40
0
 41
0
  0
VERTEX
  8
0
 10
13.3327
 20
21.945
 30
0.0
 40
0
 41
0
  0
VERTEX
  8
0
 10
13.3728
 20
21.9475
 30
0.0
 40
0
 41
0
  0
VERTEX
  8
0
 10
13.3862
 20
21.9475
 30
0.0
 40
0
 41
0
  0
VERTEX
  8
0
 10
13.402
 20
21.9474
 30
0.0
 40
0
 41
0
  0
VERTEX
  8
0
 10
13.4492
 20
21.9397
 30
0.0
 40
0
 41
0
  0
VERTEX
  8
0
 10
13.4982
 20
21.9169
 30
0.0
 40
0
 41
0
  0
VERTEX
  8
0
 10
13.5299
 20
21.8779
 30
0.0
 40
0
 41
0
  0
VERTEX
  8
0
 10
13.5412
 20
21.8357
 30
0.0
 40
0
 41
0
  0
VERTEX
  8
0
 10
13.5412
 20
21.8217
 30
0.0
 40
0
 41
0
  0
VERTEX
  8
0
 10
13.5412
 20
21.8085
 30
0.0
 40
0
 41
0
  0
VERTEX
  8
0
 10
13.5305
 20
21.7692
 30
0.0
 40
0
 41
0
  0
VERTEX
  8
0
 10
13.5001
 20
21.7287
 30
0.0
 40
0
 41
0
  0
VERTEX
  8
0
 10
13.4522
 20
21.7028
 30
0.0
 40
0
 41
0
  0
VERTEX
  8
0
 10
13.4049
 20
21.6936
 30
0.0
 40
0
 41
0
  0
VERTEX
  8
0
 10
13.3893
 20
21.6936
 30
0.0
 40
0
 41
0
  0
VERTEX
  8
0
 10
13.3003
 20
21.6936
 30
0.0
 40
0
 41
0
  0
VERTEX
  8
0
 10
13.3003
 20
21.9397
 30
0.0
 40
0
 41
0
  0
SEQEND
 8
0
  0
POLYLINE
  8
0
 62
     0
 66
     1
 10
0
 20
0
 30
0.0
 70
     1
 40
0
 41
0
  0
VERTEX
  8
0
 10
14.1411
 20
21.5617
 30
0.0
 40
0
 41
0
  0
VERTEX
  8
0
 10
14.1414
 20
21.5639
 30
0.0
 40
0
 41
0
  0
VERTEX
  8
0
 10
14.1442
 20
21.5931
 30
0.0
 40
0
 41
0
  0
VERTEX
  8
0
 10
14.1442
 20
21.6026
 30
0.0
 40
0
 41
0
  0
VERTEX
  8
0
 10
14.1442
 20
21.621
 30
0.0
 40
0
 41
0
  0
VERTEX
  8
0
 10
14.1351
 20
21.6758
 30
0.0
 40
0
 41
0
  0
VERTEX
  8
0
 10
14.1035
 20
21.75
 30
0.0
 40
0
 41
0
  0
VERTEX
  8
0
 10
14.0422
 20
21.8075
 30
0.0
 40
0
 41
0
  0
VERTEX
  8
0
 10
13.9688
 20
21.8306
 30
0.0
 40
0
 41
0
  0
VERTEX
  8
0
 10
13.9443
 20
21.8306
 30
0.0
 40
0
 41
0
  0
VERTEX
  8
0
 10
13.9206
 20
21.8306
 30
0.0
 40
0
 41
0
  0
VERTEX
  8
0
 10
13.8493
 20
21.8103
 30
0.0
 40
0
 41
0
  0
VERTEX
  8
0
 10
13.7779
 20
21.7549
 30
0.0
 40
0
 41
0
  0
VERTEX
  8
0
 10
13.7329
 20
21.6721
 30
0.0
 40
0
 41
0
  0
VERTEX
  8
0
 10
13.7173
 20
21.5953
 30
0.0
 40
0
 41
0
  0
VERTEX
  8
0
 10
13.7173
 20
21.5697
 30
0.0
 40
0
 41
0
  0
VERTEX
  8
0
 10
13.7173
 20
21.5447
 30
0.0
 40
0
 41
0
  0
VERTEX
  8
0
 10
13.7335
 20
21.47
 30
0.0
 40
0
 41
0
  0
VERTEX
  8
0
 10
13.7804
 20
21.3929
 30
0.0
 40
0
 41
0
  0
VERTEX
  8
0
 10
13.8551
 20
21.3433
 30
0.0
 40
0
 41
0
  0
VERTEX
  8
0
 10
13.9301
 20
21.3257
 30
0.0
 40
0
 41
0
  0
VERTEX
  8
0
 10
13.9551
 20
21.3257
 30
0.0
 40
0
 41
0
  0
VERTEX
  8
0
 10
13.9685
 20
21.3257
 30
0.0
 40
0
 41
0
  0
VERTEX
  8
0
 10
14.0085
 20
21.3285
 30
0.0
 40
0
 41
0
  0
VERTEX
  8
0
 10
14.0529
 20
21.3356
 30
0.0
 40
0
 41
0
  0
VERTEX
  8
0
 10
14.0888
 20
21.3451
 30
0.0
 40
0
 41
0
  0
VERTEX
  8
0
 10
14.1094
 20
21.3526
 30
0.0
 40
0
 41
0
  0
VERTEX
  8
0
 10
14.1161
 20
21.3557
 30
0.0
 40
0
 41
0
  0
VERTEX
  8
0
 10
14.1012
 20
21.4186
 30
0.0
 40
0
 41
0
  0
VERTEX
  8
0
 10
14.0929
 20
21.4151
 30
0.0
 40
0
 41
0
  0
VERTEX
  8
0
 10
14.0454
 20
21.401
 30
0.0
 40
0
 41
0
  0
VERTEX
  8
0
 10
13.9868
 20
21.3936
 30
0.0
 40
0
 41
0
  0
VERTEX
  8
0
 10
13.9672
 20
21.3936
 30
0.0
 40
0
 41
0
  0
VERTEX
  8
0
 10
13.9515
 20
21.3936
 30
0.0
 40
0
 41
0
  0
VERTEX
  8
0
 10
13.9044
 20
21.4032
 30
0.0
 40
0
 41
0
  0
VERTEX
  8
0
 10
13.8519
 20
21.4331
 30
0.0
 40
0
 41
0
  0
VERTEX
  8
0
 10
13.8156
 20
21.4853
 30
0.0
 40
0
 41
0
  0
VERTEX
  8
0
 10
13.8015
 20
21.5425
 30
0.0
 40
0
 41
0
  0
VERTEX
  8
0
 10
13.8013
 20
21.5617
 30
0.0
 40
0
 41
0
  0
VERTEX
  8
0
 10
14.1411
 20
21.5617
 30
0.0
 40
0
 41
0
  0
SEQEND
 8
0
  0
POLYLINE
  8
0
 62
     0
 66
     1
 10
0
 20
0
 30
0.0
 70
     1
 40
0
 41
0
  0
VERTEX
  8
0
 10
13.8024
 20
21.6246
 30
0.0
 40
0
 41
0
  0
VERTEX
  8
0
 10
13.8037
 20
21.6368
 30
0.0
 40
0
 41
0
  0
VERTEX
  8
0
 10
13.8139
 20
21.6726
 30
0.0
 40
0
 41
0
  0
VERTEX
  8
0
 10
13.8391
 20
21.719
 30
0.0
 40
0
 41
0
  0
VERTEX
  8
0
 10
13.8797
 20
21.7539
 30
0.0
 40
0
 41
0
  0
VERTEX
  8
0
 10
13.9229
 20
21.7676
 30
0.0
 40
0
 41
0
  0
VERTEX
  8
0
 10
13.9374
 20
21.7676
 30
0.0
 40
0
 41
0
  0
VERTEX
  8
0
 10
13.9457
 20
21.7676
 30
0.0
 40
0
 41
0
  0
VERTEX
  8
0
 10
13.971
 20
21.7638
 30
0.0
 40
0
 41
0
  0
VERTEX
  8
0
 10
13.9983
 20
21.7532
 30
0.0
 40
0
 41
0
  0
VERTEX
  8
0
 10
14.0196
 20
21.7371
 30
0.0
 40
0
 41
0
  0
VERTEX
  8
0
 10
14.0357
 20
21.7171
 30
0.0
 40
0
 41
0
  0
VERTEX
  8
0
 10
14.0471
 20
21.6944
 30
0.0
 40
0
 41
0
  0
VERTEX
  8
0
 10
14.0546
 20
21.6706
 30
0.0
 40
0
 41
0
  0
VERTEX
  8
0
 10
14.0583
 20
21.6468
 30
0.0
 40
0
 41
0
  0
VERTEX
  8
0
 10
14.0593
 20
21.6301
 30
0.0
 40
0
 41
0
  0
VERTEX
  8
0
 10
14.0593
 20
21.6246
 30
0.0
 40
0
 41
0
  0
VERTEX
  8
0
 10
13.8024
 20
21.6246
 30
0.0
 40
0
 41
0
  0
SEQEND
 8
0
  0
POLYLINE
  8
0
 62
     0
 66
     1
 10
0
 20
0
 30
0.0
 70
     1
 40
0
 41
0
  0
VERTEX
  8
0
 10
14.1933
 20
21.8197
 30
0.0
 40
0
 41
0
  0
VERTEX
  8
0
 10
14.3774
 20
21.3357
 30
0.0
 40
0
 41
0
  0
VERTEX
  8
0
 10
14.4612
 20
21.3357
 30
0.0
 40
0
 41
0
  0
VERTEX
  8
0
 10
14.6513
 20
21.8197
 30
0.0
 40
0
 41
0
  0
VERTEX
  8
0
 10
14.5592
 20
21.8197
 30
0.0
 40
0
 41
0
  0
VERTEX
  8
0
 10
14.4653
 20
21.5478
 30
0.0
 40
0
 41
0
  0
VERTEX
  8
0
 10
14.4612
 20
21.5367
 30
0.0
 40
0
 41
0
  0
VERTEX
  8
0
 10
14.4269
 20
21.4336
 30
0.0
 40
0
 41
0
  0
VERTEX
  8
0
 10
14.4242
 20
21.4236
 30
0.0
 40
0
 41
0
  0
VERTEX
  8
0
 10
14.4211
 20
21.4236
 30
0.0
 40
0
 41
0
  0
VERTEX
  8
0
 10
14.4186
 20
21.4336
 30
0.0
 40
0
 41
0
  0
VERTEX
  8
0
 10
14.3863
 20
21.5367
 30
0.0
 40
0
 41
0
  0
VERTEX
  8
0
 10
14.3824
 20
21.5478
 30
0.0
 40
0
 41
0
  0
VERTEX
  8
0
 10
14.2872
 20
21.8197
 30
0.0
 40
0
 41
0
  0
VERTEX
  8
0
 10
14.1933
 20
21.8197
 30
0.0
 40
0
 41
0
  0
SEQEND
 8
0
  0
POLYLINE
  8
0
 62
     0
 66
     1
 10
0
 20
0
 30
0.0
 70
     1
 40
0
 41
0
  0
VERTEX
  8
0
 10
15.1131
 20
21.5617
 30
0.0
 40
0
 41
0
  0
VERTEX
  8
0
 10
15.1133
 20
21.5639
 30
0.0
 40
0
 41
0
  0
VERTEX
  8
0
 10
15.1161
 20
21.5931
 30
0.0
 40
0
 41
0
  0
VERTEX
  8
0
 10
15.1161
 20
21.6026
 30
0.0
 40
0
 41
0
  0
VERTEX
  8
0
 10
15.1161
 20
21.621
 30
0.0
 40
0
 41
0
  0
VERTEX
  8
0
 10
15.1069
 20
21.6758
 30
0.0
 40
0
 41
0
  0
VERTEX
  8
0
 10
15.0754
 20
21.75
 30
0.0
 40
0
 41
0
  0
VERTEX
  8
0
 10
15.014
 20
21.8075
 30
0.0
 40
0
 41
0
  0
VERTEX
  8
0
 10
14.9407
 20
21.8306
 30
0.0
 40
0
 41
0
  0
VERTEX
  8
0
 10
14.9161
 20
21.8306
 30
0.0
 40
0
 41
0
  0
VERTEX
  8
0
 10
14.8924
 20
21.8306
 30
0.0
 40
0
 41
0
  0
VERTEX
  8
0
 10
14.8213
 20
21.8103
 30
0.0
 40
0
 41
0
  0
VERTEX
  8
0
 10
14.7497
 20
21.7549
 30
0.0
 40
0
 41
0
  0
VERTEX
  8
0
 10
14.7049
 20
21.6721
 30
0.0
 40
0
 41
0
  0
VERTEX
  8
0
 10
14.6892
 20
21.5953
 30
0.0
 40
0
 41
0
  0
VERTEX
  8
0
 10
14.6892
 20
21.5697
 30
0.0
 40
0
 41
0
  0
VERTEX
  8
0
 10
14.6892
 20
21.5447
 30
0.0
 40
0
 41
0
  0
VERTEX
  8
0
 10
14.7054
 20
21.47
 30
0.0
 40
0
 41
0
  0
VERTEX
  8
0
 10
14.7522
 20
21.3929
 30
0.0
 40
0
 41
0
  0
VERTEX
  8
0
 10
14.8271
 20
21.3433
 30
0.0
 40
0
 41
0
  0
VERTEX
  8
0
 10
14.9021
 20
21.3257
 30
0.0
 40
0
 41
0
  0
VERTEX
  8
0
 10
14.9271
 20
21.3257
 30
0.0
 40
0
 41
0
  0
VERTEX
  8
0
 10
14.9403
 20
21.3257
 30
0.0
 40
0
 41
0
  0
VERTEX
  8
0
 10
14.9803
 20
21.3285
 30
0.0
 40
0
 41
0
  0
VERTEX
  8
0
 10
15.0249
 20
21.3356
 30
0.0
 40
0
 41
0
  0
VERTEX
  8
0
 10
15.0606
 20
21.3451
 30
0.0
 40
0
 41
0
  0
VERTEX
  8
0
 10
15.0814
 20
21.3526
 30
0.0
 40
0
 41
0
  0
VERTEX
  8
0
 10
15.0881
 20
21.3557
 30
0.0
 40
0
 41
0
  0
VERTEX
  8
0
 10
15.0731
 20
21.4186
 30
0.0
 40
0
 41
0
  0
VERTEX
  8
0
 10
15.0649
 20
21.4151
 30
0.0
 40
0
 41
0
  0
VERTEX
  8
0
 10
15.0174
 20
21.401
 30
0.0
 40
0
 41
0
  0
VERTEX
  8
0
 10
14.9588
 20
21.3936
 30
0.0
 40
0
 41
0
  0
VERTEX
  8
0
 10
14.9392
 20
21.3936
 30
0.0
 40
0
 41
0
  0
VERTEX
  8
0
 10
14.9235
 20
21.3936
 30
0.0
 40
0
 41
0
  0
VERTEX
  8
0
 10
14.8762
 20
21.4032
 30
0.0
 40
0
 41
0
  0
VERTEX
  8
0
 10
14.8239
 20
21.4331
 30
0.0
 40
0
 41
0
  0
VERTEX
  8
0
 10
14.7875
 20
21.4853
 30
0.0
 40
0
 41
0
  0
VERTEX
  8
0
 10
14.7735
 20
21.5425
 30
0.0
 40
0
 41
0
  0
VERTEX
  8
0
 10
14.7732
 20
21.5617
 30
0.0
 40
0
 41
0
  0
VERTEX
  8
0
 10
15.1131
 20
21.5617
 30
0.0
 40
0
 41
0
  0
SEQEND
 8
0
  0
POLYLINE
  8
0
 62
     0
 66
     1
 10
0
 20
0
 30
0.0
 70
     1
 40
0
 41
0
  0
VERTEX
  8
0
 10
14.7743
 20
21.6246
 30
0.0
 40
0
 41
0
  0
VERTEX
  8
0
 10
14.7756
 20
21.6368
 30
0.0
 40
0
 41
0
  0
VERTEX
  8
0
 10
14.7857
 20
21.6726
 30
0.0
 40
0
 41
0
  0
VERTEX
  8
0
 10
14.811
 20
21.719
 30
0.0
 40
0
 41
0
  0
VERTEX
  8
0
 10
14.8515
 20
21.7539
 30
0.0
 40
0
 41
0
  0
VERTEX
  8
0
 10
14.8949
 20
21.7676
 30
0.0
 40
0
 41
0
  0
VERTEX
  8
0
 10
14.9092
 20
21.7676
 30
0.0
 40
0
 41
0
  0
VERTEX
  8
0
 10
14.9176
 20
21.7676
 30
0.0
 40
0
 41
0
  0
VERTEX
  8
0
 10
14.9429
 20
21.7638
 30
0.0
 40
0
 41
0
  0
VERTEX
  8
0
 10
14.9701
 20
21.7532
 30
0.0
 40
0
 41
0
  0
VERTEX
  8
0
 10
14.9915
 20
21.7371
 30
0.0
 40
0
 41
0
  0
VERTEX
  8
0
 10
15.0076
 20
21.7171
 30
0.0
 40
0
 41
0
  0
VERTEX
  8
0
 10
15.019
 20
21.6944
 30
0.0
 40
0
 41
0
  0
VERTEX
  8
0
 10
15.0264
 20
21.6706
 30
0.0
 40
0
 41
0
  0
VERTEX
  8
0
 10
15.0303
 20
21.6468
 30
0.0
 40
0
 41
0
  0
VERTEX
  8
0
 10
15.0313
 20
21.6301
 30
0.0
 40
0
 41
0
  0
VERTEX
  8
0
 10
15.0313
 20
21.6246
 30
0.0
 40
0
 41
0
  0
VERTEX
  8
0
 10
14.7743
 20
21.6246
 30
0.0
 40
0
 41
0
  0
SEQEND
 8
0
  0
POLYLINE
  8
0
 62
     0
 66
     1
 10
0
 20
0
 30
0.0
 70
     1
 40
0
 41
0
  0
VERTEX
  8
0
 10
15.5729
 20
21.3357
 30
0.0
 40
0
 41
0
  0
VERTEX
  8
0
 10
15.5715
 20
21.344
 30
0.0
 40
0
 41
0
  0
VERTEX
  8
0
 10
15.5668
 20
21.3904
 30
0.0
 40
0
 41
0
  0
VERTEX
  8
0
 10
15.5651
 20
21.4363
 30
0.0
 40
0
 41
0
  0
VERTEX
  8
0
 10
15.5651
 20
21.4517
 30
0.0
 40
0
 41
0
  0
VERTEX
  8
0
 10
15.5651
 20
21.6326
 30
0.0
 40
0
 41
0
  0
VERTEX
  8
0
 10
15.5651
 20
21.6417
 30
0.0
 40
0
 41
0
  0
VERTEX
  8
0
 10
15.5633
 20
21.669
 30
0.0
 40
0
 41
0
  0
VERTEX
  8
0
 10
15.5572
 20
21.7044
 30
0.0
 40
0
 41
0
  0
VERTEX
  8
0
 10
15.546
 20
21.7379
 30
0.0
 40
0
 41
0
  0
VERTEX
  8
0
 10
15.5286
 20
21.7679
 30
0.0
 40
0
 41
0
  0
VERTEX
  8
0
 10
15.5044
 20
21.7935
 30
0.0
 40
0
 41
0
  0
VERTEX
  8
0
 10
15.4722
 20
21.8132
 30
0.0
 40
0
 41
0
  0
VERTEX
  8
0
 10
15.4315
 20
21.826
 30
0.0
 40
0
 41
0
  0
VERTEX
  8
0
 10
15.3937
 20
21.8306
 30
0.0
 40
0
 41
0
  0
VERTEX
  8
0
 10
15.3811
 20
21.8306
 30
0.0
 40
0
 41
0
  0
VERTEX
  8
0
 10
15.3593
 20
21.8306
 30
0.0
 40
0
 41
0
  0
VERTEX
  8
0
 10
15.2938
 20
21.8187
 30
0.0
 40
0
 41
0
  0
VERTEX
  8
0
 10
15.2321
 20
21.794
 30
0.0
 40
0
 41
0
  0
VERTEX
  8
0
 10
15.2221
 20
21.7875
 30
0.0
 40
0
 41
0
  0
VERTEX
  8
0
 10
15.2422
 20
21.7296
 30
0.0
 40
0
 41
0
  0
VERTEX
  8
0
 10
15.2507
 20
21.7351
 30
0.0
 40
0
 41
0
  0
VERTEX
  8
0
 10
15.301
 20
21.7558
 30
0.0
 40
0
 41
0
  0
VERTEX
  8
0
 10
15.3513
 20
21.7657
 30
0.0
 40
0
 41
0
  0
VERTEX
  8
0
 10
15.3681
 20
21.7657
 30
0.0
 40
0
 41
0
  0
VERTEX
  8
0
 10
15.3764
 20
21.7657
 30
0.0
 40
0
 41
0
  0
VERTEX
  8
0
 10
15.4013
 20
21.7625
 30
0.0
 40
0
 41
0
  0
VERTEX
  8
0
 10
15.4271
 20
21.7538
 30
0.0
 40
0
 41
0
  0
VERTEX
  8
0
 10
15.4464
 20
21.7407
 30
0.0
 40
0
 41
0
  0
VERTEX
  8
0
 10
15.4603
 20
21.7246
 30
0.0
 40
0
 41
0
  0
VERTEX
  8
0
 10
15.4694
 20
21.7067
 30
0.0
 40
0
 41
0
  0
VERTEX
  8
0
 10
15.4749
 20
21.6881
 30
0.0
 40
0
 41
0
  0
VERTEX
  8
0
 10
15.4775
 20
21.6699
 30
0.0
 40
0
 41
0
  0
VERTEX
  8
0
 10
15.4782
 20
21.6578
 30
0.0
 40
0
 41
0
  0
VERTEX
  8
0
 10
15.4782
 20
21.6536
 30
0.0
 40
0
 41
0
  0
VERTEX
  8
0
 10
15.4782
 20
21.6436
 30
0.0
 40
0
 41
0
  0
VERTEX
  8
0
 10
15.4471
 20
21.6439
 30
0.0
 40
0
 41
0
  0
VERTEX
  8
0
 10
15.3537
 20
21.6325
 30
0.0
 40
0
 41
0
  0
VERTEX
  8
0
 10
15.2625
 20
21.5979
 30
0.0
 40
0
 41
0
  0
VERTEX
  8
0
 10
15.2062
 20
21.5414
 30
0.0
 40
0
 41
0
  0
VERTEX
  8
0
 10
15.1871
 20
21.4832
 30
0.0
 40
0
 41
0
  0
VERTEX
  8
0
 10
15.1871
 20
21.4638
 30
0.0
 40
0
 41
0
  0
VERTEX
  8
0
 10
15.1871
 20
21.451
 30
0.0
 40
0
 41
0
  0
VERTEX
  8
0
 10
15.1964
 20
21.4125
 30
0.0
 40
0
 41
0
  0
VERTEX
  8
0
 10
15.2244
 20
21.3679
 30
0.0
 40
0
 41
0
  0
VERTEX
  8
0
 10
15.2707
 20
21.3365
 30
0.0
 40
0
 41
0
  0
VERTEX
  8
0
 10
15.319
 20
21.3247
 30
0.0
 40
0
 41
0
  0
VERTEX
  8
0
 10
15.3351
 20
21.3247
 30
0.0
 40
0
 41
0
  0
VERTEX
  8
0
 10
15.3472
 20
21.3247
 30
0.0
 40
0
 41
0
  0
VERTEX
  8
0
 10
15.3835
 20
21.3306
 30
0.0
 40
0
 41
0
  0
VERTEX
  8
0
 10
15.4249
 20
21.3465
 30
0.0
 40
0
 41
0
  0
VERTEX
  8
0
 10
15.4582
 20
21.3694
 30
0.0
 40
0
 41
0
  0
VERTEX
  8
0
 10
15.4778
 20
21.3893
 30
0.0
 40
0
 41
0
  0
VERTEX
  8
0
 10
15.4832
 20
21.3967
 30
0.0
 40
0
 41
0
  0
VERTEX
  8
0
 10
15.4861
 20
21.3967
 30
0.0
 40
0
 41
0
  0
VERTEX
  8
0
 10
15.4931
 20
21.3357
 30
0.0
 40
0
 41
0
  0
VERTEX
  8
0
 10
15.5729
 20
21.3357
 30
0.0
 40
0
 41
0
  0
SEQEND
 8
0
  0
POLYLINE
  8
0
 62
     0
 66
     1
 10
0
 20
0
 30
0.0
 70
     1
 40
0
 41
0
  0
VERTEX
  8
0
 10
15.4801
 20
21.4988
 30
0.0
 40
0
 41
0
  0
VERTEX
  8
0
 10
15.4801
 20
21.4917
 30
0.0
 40
0
 41
0
  0
VERTEX
  8
0
 10
15.4758
 20
21.4729
 30
0.0
 40
0
 41
0
  0
VERTEX
  8
0
 10
15.4751
 20
21.4707
 30
0.0
 40
0
 41
0
  0
VERTEX
  8
0
 10
15.4725
 20
21.4628
 30
0.0
 40
0
 41
0
  0
VERTEX
  8
0
 10
15.4599
 20
21.4407
 30
0.0
 40
0
 41
0
  0
VERTEX
  8
0
 10
15.435
 20
21.4149
 30
0.0
 40
0
 41
0
  0
VERTEX
  8
0
 10
15.401
 20
21.3967
 30
0.0
 40
0
 41
0
  0
VERTEX
  8
0
 10
15.3688
 20
21.3897
 30
0.0
 40
0
 41
0
  0
VERTEX
  8
0
 10
15.3582
 20
21.3897
 30
0.0
 40
0
 41
0
  0
VERTEX
  8
0
 10
15.3501
 20
21.3897
 30
0.0
 40
0
 41
0
  0
VERTEX
  8
0
 10
15.3261
 20
21.3949
 30
0.0
 40
0
 41
0
  0
VERTEX
  8
0
 10
15.2999
 20
21.4104
 30
0.0
 40
0
 41
0
  0
VERTEX
  8
0
 10
15.2818
 20
21.4365
 30
0.0
 40
0
 41
0
  0
VERTEX
  8
0
 10
15.2753
 20
21.4644
 30
0.0
 40
0
 41
0
  0
VERTEX
  8
0
 10
15.2753
 20
21.4737
 30
0.0
 40
0
 41
0
  0
VERTEX
  8
0
 10
15.2753
 20
21.4817
 30
0.0
 40
0
 41
0
  0
VERTEX
  8
0
 10
15.28
 20
21.5056
 30
0.0
 40
0
 41
0
  0
VERTEX
  8
0
 10
15.2938
 20
21.5307
 30
0.0
 40
0
 41
0
  0
VERTEX
  8
0
 10
15.3147
 20
21.55
 30
0.0
 40
0
 41
0
  0
VERTEX
  8
0
 10
15.3417
 20
21.5642
 30
0.0
 40
0
 41
0
  0
VERTEX
  8
0
 10
15.3731
 20
21.5739
 30
0.0
 40
0
 41
0
  0
VERTEX
  8
0
 10
15.4076
 20
21.5797
 30
0.0
 40
0
 41
0
  0
VERTEX
  8
0
 10
15.4437
 20
21.5825
 30
0.0
 40
0
 41
0
  0
VERTEX
  8
0
 10
15.471
 20
21.5829
 30
0.0
 40
0
 41
0
  0
VERTEX
  8
0
 10
15.4801
 20
21.5826
 30
0.0
 40
0
 41
0
  0
VERTEX
  8
0
 10
15.4801
 20
21.4988
 30
0.0
 40
0
 41
0
  0
SEQEND
 8
0
  0
POLYLINE
  8
0
 62
     0
 66
     1
 10
0
 20
0
 30
0.0
 70
     1
 40
0
 41
0
  0
VERTEX
  8
0
 10
15.7071
 20
21.3357
 30
0.0
 40
0
 41
0
  0
VERTEX
  8
0
 10
15.7951
 20
21.3357
 30
0.0
 40
0
 41
0
  0
VERTEX
  8
0
 10
15.7951
 20
22.0456
 30
0.0
 40
0
 41
0
  0
VERTEX
  8
0
 10
15.7071
 20
22.0456
 30
0.0
 40
0
 41
0
  0
VERTEX
  8
0
 10
15.7071
 20
21.3357
 30
0.0
 40
0
 41
0
  0
SEQEND
 8
0
  0
POLYLINE
  8
0
 62
     0
 66
     1
 10
0
 20
0
 30
0.0
 70
     1
 40
0
 41
0
  0
VERTEX
  8
0
 10
16.6379
 20
21.6725
 30
0.0
 40
0
 41
0
  0
VERTEX
  8
0
 10
16.6379
 20
21.7326
 30
0.0
 40
0
 41
0
  0
VERTEX
  8
0
 10
16.1221
 20
21.7326
 30
0.0
 40
0
 41
0
  0
VERTEX
  8
0
 10
16.1221
 20
21.6725
 30
0.0
 40
0
 41
0
  0
VERTEX
  8
0
 10
16.6379
 20
21.6725
 30
0.0
 40
0
 41
0
  0
SEQEND
 8
0
  0
POLYLINE
  8
0
 62
     0
 66
     1
 10
0
 20
0
 30
0.0
 70
     1
 40
0
 41
0
  0
VERTEX
  8
0
 10
16.6379
 20
21.4768
 30
0.0
 40
0
 41
0
  0
VERTEX
  8
0
 10
16.6379
 20
21.5367
 30
0.0
 40
0
 41
0
  0
VERTEX
  8
0
 10
16.1221
 20
21.5367
 30
0.0
 40
0
 41
0
  0
VERTEX
  8
0
 10
16.1221
 20
21.4768
 30
0.0
 40
0
 41
0
  0
VERTEX
  8
0
 10
16.6379
 20
21.4768
 30
0.0
 40
0
 41
0
  0
SEQEND
 8
0
  0
POLYLINE
  8
0
 62
     0
 66
     1
 10
0
 20
0
 30
0.0
 70
     1
 40
0
 41
0
  0
VERTEX
  8
0
 10
17.3499
 20
21.3357
 30
0.0
 40
0
 41
0
  0
VERTEX
  8
0
 10
17.3499
 20
21.4086
 30
0.0
 40
0
 41
0
  0
VERTEX
  8
0
 10
17.0581
 20
21.4086
 30
0.0
 40
0
 41
0
  0
VERTEX
  8
0
 10
17.0581
 20
21.4108
 30
0.0
 40
0
 41
0
  0
VERTEX
  8
0
 10
17.1099
 20
21.4588
 30
0.0
 40
0
 41
0
  0
VERTEX
  8
0
 10
17.1335
 20
21.4817
 30
0.0
 40
0
 41
0
  0
VERTEX
  8
0
 10
17.2026
 20
21.5521
 30
0.0
 40
0
 41
0
  0
VERTEX
  8
0
 10
17.2733
 20
21.6376
 30
0.0
 40
0
 41
0
  0
VERTEX
  8
0
 10
17.3181
 20
21.7211
 30
0.0
 40
0
 41
0
  0
VERTEX
  8
0
 10
17.3339
 20
21.786
 30
0.0
 40
0
 41
0
  0
VERTEX
  8
0
 10
17.3339
 20
21.8075
 30
0.0
 40
0
 41
0
  0
VERTEX
  8
0
 10
17.3339
 20
21.8163
 30
0.0
 40
0
 41
0
  0
VERTEX
  8
0
 10
17.331
 20
21.8424
 30
0.0
 40
0
 41
0
  0
VERTEX
  8
0
 10
17.3224
 20
21.8764
 30
0.0
 40
0
 41
0
  0
VERTEX
  8
0
 10
17.3078
 20
21.9082
 30
0.0
 40
0
 41
0
  0
VERTEX
  8
0
 10
17.2869
 20
21.9369
 30
0.0
 40
0
 41
0
  0
VERTEX
  8
0
 10
17.2594
 20
21.9612
 30
0.0
 40
0
 41
0
  0
VERTEX
  8
0
 10
17.2251
 20
21.9801
 30
0.0
 40
0
 41
0
  0
VERTEX
  8
0
 10
17.1837
 20
21.9922
 30
0.0
 40
0
 41
0
  0
VERTEX
  8
0
 10
17.1472
 20
21.9965
 30
0.0
 40
0
 41
0
  0
VERTEX
  8
0
 10
17.135
 20
21.9965
 30
0.0
 40
0
 41
0
  0
VERTEX
  8
0
 10
17.1215
 20
21.9965
 30
0.0
 40
0
 41
0
  0
VERTEX
  8
0
 10
17.0808
 20
21.9915
 30
0.0
 40
0
 41
0
  0
VERTEX
  8
0
 10
17.0317
 20
21.9778
 30
0.0
 40
0
 41
0
  0
VERTEX
  8
0
 10
16.9881
 20
21.9569
 30
0.0
 40
0
 41
0
  0
VERTEX
  8
0
 10
16.9596
 20
21.9379
 30
0.0
 40
0
 41
0
  0
VERTEX
  8
0
 10
16.951
 20
21.9306
 30
0.0
 40
0
 41
0
  0
VERTEX
  8
0
 10
16.979
 20
21.8685
 30
0.0
 40
0
 41
0
  0
VERTEX
  8
0
 10
16.9851
 20
21.8738
 30
0.0
 40
0
 41
0
  0
VERTEX
  8
0
 10
17.0049
 20
21.8878
 30
0.0
 40
0
 41
0
  0
VERTEX
  8
0
 10
17.0371
 20
21.9056
 30
0.0
 40
0
 41
0
  0
VERTEX
  8
0
 10
17.0747
 20
21.9186
 30
0.0
 40
0
 41
0
  0
VERTEX
  8
0
 10
17.1064
 20
21.9236
 30
0.0
 40
0
 41
0
  0
VERTEX
  8
0
 10
17.1171
 20
21.9236
 30
0.0
 40
0
 41
0
  0
VERTEX
  8
0
 10
17.1322
 20
21.9236
 30
0.0
 40
0
 41
0
  0
VERTEX
  8
0
 10
17.1781
 20
21.9131
 30
0.0
 40
0
 41
0
  0
VERTEX
  8
0
 10
17.2178
 20
21.8849
 30
0.0
 40
0
 41
0
  0
VERTEX
  8
0
 10
17.2394
 20
21.8443
 30
0.0
 40
0
 41
0
  0
VERTEX
  8
0
 10
17.246
 20
21.8086
 30
0.0
 40
0
 41
0
  0
VERTEX
  8
0
 10
17.246
 20
21.7967
 30
0.0
 40
0
 41
0
  0
VERTEX
  8
0
 10
17.2457
 20
21.7786
 30
0.0
 40
0
 41
0
  0
VERTEX
  8
0
 10
17.231
 20
21.7244
 30
0.0
 40
0
 41
0
  0
VERTEX
  8
0
 10
17.1868
 20
21.649
 30
0.0
 40
0
 41
0
  0
VERTEX
  8
0
 10
17.1117
 20
21.5626
 30
0.0
 40
0
 41
0
  0
VERTEX
  8
0
 10
17.0313
 20
21.4826
 30
0.0
 40
0
 41
0
  0
VERTEX
  8
0
 10
17.004
 20
21.4567
 30
0.0
 40
0
 41
0
  0
VERTEX
  8
0
 10
16.935
 20
21.3897
 30
0.0
 40
0
 41
0
  0
VERTEX
  8
0
 10
16.935
 20
21.3357
 30
0.0
 40
0
 41
0
  0
VERTEX
  8
0
 10
17.3499
 20
21.3357
 30
0.0
 40
0
 41
0
  0
SEQEND
 8
0
  0
POLYLINE
  8
0
 62
     0
 66
     1
 10
0
 20
0
 30
0.0
 70
     1
 40
0
 41
0
  0
VERTEX
  8
0
 10
17.4601
 20
21.9854
 30
0.0
 40
0
 41
0
  0
VERTEX
  8
0
 10
17.4601
 20
21.9125
 30
0.0
 40
0
 41
0
  0
VERTEX
  8
0
 10
17.7781
 20
21.9125
 30
0.0
 40
0
 41
0
  0
VERTEX
  8
0
 10
17.7781
 20
21.9106
 30
0.0
 40
0
 41
0
  0
VERTEX
  8
0
 10
17.4958
 20
21.3357
 30
0.0
 40
0
 41
0
  0
VERTEX
  8
0
 10
17.5871
 20
21.3357
 30
0.0
 40
0
 41
0
  0
VERTEX
  8
0
 10
17.8699
 20
21.9275
 30
0.0
 40
0
 41
0
  0
VERTEX
  8
0
 10
17.8699
 20
21.9854
 30
0.0
 40
0
 41
0
  0
VERTEX
  8
0
 10
17.4601
 20
21.9854
 30
0.0
 40
0
 41
0
  0
SEQEND
 8
0
  0
POLYLINE
  8
0
 62
     0
 66
     1
 10
0
 20
0
 30
0.0
 70
     1
 40
0
 41
0
  0
VERTEX
  8
0
 10
18.0268
 20
21.3247
 30
0.0
 40
0
 41
0
  0
VERTEX
  8
0
 10
18.0331
 20
21.3247
 30
0.0
 40
0
 41
0
  0
VERTEX
  8
0
 10
18.0518
 20
21.3294
 30
0.0
 40
0
 41
0
  0
VERTEX
  8
0
 10
18.0708
 20
21.3428
 30
0.0
 40
0
 41
0
  0
VERTEX
  8
0
 10
18.0828
 20
21.3628
 30
0.0
 40
0
 41
0
  0
VERTEX
  8
0
 10
18.0869
 20
21.3815
 30
0.0
 40
0
 41
0
  0
VERTEX
  8
0
 10
18.0869
 20
21.3878
 30
0.0
 40
0
 41
0
  0
VERTEX
  8
0
 10
18.0869
 20
21.3942
 30
0.0
 40
0
 41
0
  0
VERTEX
  8
0
 10
18.0826
 20
21.4132
 30
0.0
 40
0
 41
0
  0
VERTEX
  8
0
 10
18.0706
 20
21.4331
 30
0.0
 40
0
 41
0
  0
VERTEX
  8
0
 10
18.0518
 20
21.4461
 30
0.0
 40
0
 41
0
  0
VERTEX
  8
0
 10
18.0339
 20
21.4507
 30
0.0
 40
0
 41
0
  0
VERTEX
  8
0
 10
18.0279
 20
21.4507
 30
0.0
 40
0
 41
0
  0
VERTEX
  8
0
 10
18.0218
 20
21.4507
 30
0.0
 40
0
 41
0
  0
VERTEX
  8
0
 10
18.0038
 20
21.4461
 30
0.0
 40
0
 41
0
  0
VERTEX
  8
0
 10
17.9849
 20
21.4331
 30
0.0
 40
0
 41
0
  0
VERTEX
  8
0
 10
17.9725
 20
21.4132
 30
0.0
 40
0
 41
0
  0
VERTEX
  8
0
 10
17.9681
 20
21.3942
 30
0.0
 40
0
 41
0
  0
VERTEX
  8
0
 10
17.9681
 20
21.3878
 30
0.0
 40
0
 41
0
  0
VERTEX
  8
0
 10
17.9681
 20
21.3815
 30
0.0
 40
0
 41
0
  0
VERTEX
  8
0
 10
17.9722
 20
21.3628
 30
0.0
 40
0
 41
0
  0
VERTEX
  8
0
 10
17.9843
 20
21.3428
 30
0.0
 40
0
 41
0
  0
VERTEX
  8
0
 10
18.0029
 20
21.3294
 30
0.0
 40
0
 41
0
  0
VERTEX
  8
0
 10
18.0208
 20
21.3247
 30
0.0
 40
0
 41
0
  0
VERTEX
  8
0
 10
18.0268
 20
21.3247
 30
0.0
 40
0
 41
0
  0
SEQEND
 8
0
  0
POLYLINE
  8
0
 62
     0
 66
     1
 10
0
 20
0
 30
0.0
 70
     1
 40
0
 41
0
  0
VERTEX
  8
0
 10
18.5828
 20
21.3357
 30
0.0
 40
0
 41
0
  0
VERTEX
  8
0
 10
18.5828
 20
21.4086
 30
0.0
 40
0
 41
0
  0
VERTEX
  8
0
 10
18.291
 20
21.4086
 30
0.0
 40
0
 41
0
  0
VERTEX
  8
0
 10
18.291
 20
21.4108
 30
0.0
 40
0
 41
0
  0
VERTEX
  8
0
 10
18.3428
 20
21.4588
 30
0.0
 40
0
 41
0
  0
VERTEX
  8
0
 10
18.3664
 20
21.4817
 30
0.0
 40
0
 41
0
  0
VERTEX
  8
0
 10
18.4356
 20
21.5521
 30
0.0
 40
0
 41
0
  0
VERTEX
  8
0
 10
18.5062
 20
21.6376
 30
0.0
 40
0
 41
0
  0
VERTEX
  8
0
 10
18.551
 20
21.7211
 30
0.0
 40
0
 41
0
  0
VERTEX
  8
0
 10
18.5667
 20
21.786
 30
0.0
 40
0
 41
0
  0
VERTEX
  8
0
 10
18.5667
 20
21.8075
 30
0.0
 40
0
 41
0
  0
VERTEX
  8
0
 10
18.5667
 20
21.8163
 30
0.0
 40
0
 41
0
  0
VERTEX
  8
0
 10
18.5639
 20
21.8424
 30
0.0
 40
0
 41
0
  0
VERTEX
  8
0
 10
18.5553
 20
21.8764
 30
0.0
 40
0
 41
0
  0
VERTEX
  8
0
 10
18.5407
 20
21.9082
 30
0.0
 40
0
 41
0
  0
VERTEX
  8
0
 10
18.5199
 20
21.9369
 30
0.0
 40
0
 41
0
  0
VERTEX
  8
0
 10
18.4924
 20
21.9612
 30
0.0
 40
0
 41
0
  0
VERTEX
  8
0
 10
18.4581
 20
21.9801
 30
0.0
 40
0
 41
0
  0
VERTEX
  8
0
 10
18.4167
 20
21.9922
 30
0.0
 40
0
 41
0
  0
VERTEX
  8
0
 10
18.3801
 20
21.9965
 30
0.0
 40
0
 41
0
  0
VERTEX
  8
0
 10
18.3679
 20
21.9965
 30
0.0
 40
0
 41
0
  0
VERTEX
  8
0
 10
18.3544
 20
21.9965
 30
0.0
 40
0
 41
0
  0
VERTEX
  8
0
 10
18.3137
 20
21.9915
 30
0.0
 40
0
 41
0
  0
VERTEX
  8
0
 10
18.2646
 20
21.9778
 30
0.0
 40
0
 41
0
  0
VERTEX
  8
0
 10
18.221
 20
21.9569
 30
0.0
 40
0
 41
0
  0
VERTEX
  8
0
 10
18.1925
 20
21.9379
 30
0.0
 40
0
 41
0
  0
VERTEX
  8
0
 10
18.1839
 20
21.9306
 30
0.0
 40
0
 41
0
  0
VERTEX
  8
0
 10
18.2119
 20
21.8685
 30
0.0
 40
0
 41
0
  0
VERTEX
  8
0
 10
18.2181
 20
21.8738
 30
0.0
 40
0
 41
0
  0
VERTEX
  8
0
 10
18.2378
 20
21.8878
 30
0.0
 40
0
 41
0
  0
VERTEX
  8
0
 10
18.27
 20
21.9056
 30
0.0
 40
0
 41
0
  0
VERTEX
  8
0
 10
18.3076
 20
21.9186
 30
0.0
 40
0
 41
0
  0
VERTEX
  8
0
 10
18.3393
 20
21.9236
 30
0.0
 40
0
 41
0
  0
VERTEX
  8
0
 10
18.35
 20
21.9236
 30
0.0
 40
0
 41
0
  0
VERTEX
  8
0
 10
18.3651
 20
21.9236
 30
0.0
 40
0
 41
0
  0
VERTEX
  8
0
 10
18.411
 20
21.9131
 30
0.0
 40
0
 41
0
  0
VERTEX
  8
0
 10
18.4507
 20
21.8849
 30
0.0
 40
0
 41
0
  0
VERTEX
  8
0
 10
18.4724
 20
21.8443
 30
0.0
 40
0
 41
0
  0
VERTEX
  8
0
 10
18.4789
 20
21.8086
 30
0.0
 40
0
 41
0
  0
VERTEX
  8
0
 10
18.4789
 20
21.7967
 30
0.0
 40
0
 41
0
  0
VERTEX
  8
0
 10
18.4786
 20
21.7786
 30
0.0
 40
0
 41
0
  0
VERTEX
  8
0
 10
18.4639
 20
21.7244
 30
0.0
 40
0
 41
0
  0
VERTEX
  8
0
 10
18.4197
 20
21.649
 30
0.0
 40
0
 41
0
  0
VERTEX
  8
0
 10
18.3446
 20
21.5626
 30
0.0
 40
0
 41
0
  0
VERTEX
  8
0
 10
18.2642
 20
21.4826
 30
0.0
 40
0
 41
0
  0
VERTEX
  8
0
 10
18.2368
 20
21.4567
 30
0.0
 40
0
 41
0
  0
VERTEX
  8
0
 10
18.1679
 20
21.3897
 30
0.0
 40
0
 41
0
  0
VERTEX
  8
0
 10
18.1679
 20
21.3357
 30
0.0
 40
0
 41
0
  0
VERTEX
  8
0
 10
18.5828
 20
21.3357
 30
0.0
 40
0
 41
0
  0
SEQEND
 8
0
  0
POLYLINE
  8
0
 62
     0
 66
     1
 10
0
 20
0
 30
0.0
 70
     1
 40
0
 41
0
  0
VERTEX
  8
0
 10
19.0689
 20
21.9854
 30
0.0
 40
0
 41
0
  0
VERTEX
  8
0
 10
18.7579
 20
21.9854
 30
0.0
 40
0
 41
0
  0
VERTEX
  8
0
 10
18.716
 20
21.6736
 30
0.0
 40
0
 41
0
  0
VERTEX
  8
0
 10
18.7219
 20
21.6743
 30
0.0
 40
0
 41
0
  0
VERTEX
  8
0
 10
18.756
 20
21.6782
 30
0.0
 40
0
 41
0
  0
VERTEX
  8
0
 10
18.7933
 20
21.6806
 30
0.0
 40
0
 41
0
  0
VERTEX
  8
0
 10
18.8058
 20
21.6806
 30
0.0
 40
0
 41
0
  0
VERTEX
  8
0
 10
18.8268
 20
21.6806
 30
0.0
 40
0
 41
0
  0
VERTEX
  8
0
 10
18.8897
 20
21.6699
 30
0.0
 40
0
 41
0
  0
VERTEX
  8
0
 10
18.9476
 20
21.6401
 30
0.0
 40
0
 41
0
  0
VERTEX
  8
0
 10
18.9814
 20
21.5946
 30
0.0
 40
0
 41
0
  0
VERTEX
  8
0
 10
18.9926
 20
21.5512
 30
0.0
 40
0
 41
0
  0
VERTEX
  8
0
 10
18.9929
 20
21.5367
 30
0.0
 40
0
 41
0
  0
VERTEX
  8
0
 10
18.9929
 20
21.5221
 30
0.0
 40
0
 41
0
  0
VERTEX
  8
0
 10
18.9804
 20
21.4779
 30
0.0
 40
0
 41
0
  0
VERTEX
  8
0
 10
18.9469
 20
21.4335
 30
0.0
 40
0
 41
0
  0
VERTEX
  8
0
 10
18.8979
 20
21.4054
 30
0.0
 40
0
 41
0
  0
VERTEX
  8
0
 10
18.8536
 20
21.3956
 30
0.0
 40
0
 41
0
  0
VERTEX
  8
0
 10
18.8388
 20
21.3956
 30
0.0
 40
0
 41
0
  0
VERTEX
  8
0
 10
18.8281
 20
21.3956
 30
0.0
 40
0
 41
0
  0
VERTEX
  8
0
 10
18.796
 20
21.399
 30
0.0
 40
0
 41
0
  0
VERTEX
  8
0
 10
18.7574
 20
21.4078
 30
0.0
 40
0
 41
0
  0
VERTEX
  8
0
 10
18.7247
 20
21.4194
 30
0.0
 40
0
 41
0
  0
VERTEX
  8
0
 10
18.7058
 20
21.4282
 30
0.0
 40
0
 41
0
  0
VERTEX
  8
0
 10
18.6999
 20
21.4317
 30
0.0
 40
0
 41
0
  0
VERTEX
  8
0
 10
18.6778
 20
21.3649
 30
0.0
 40
0
 41
0
  0
VERTEX
  8
0
 10
18.6844
 20
21.3604
 30
0.0
 40
0
 41
0
  0
VERTEX
  8
0
 10
18.7062
 20
21.35
 30
0.0
 40
0
 41
0
  0
VERTEX
  8
0
 10
18.7439
 20
21.3372
 30
0.0
 40
0
 41
0
  0
VERTEX
  8
0
 10
18.7889
 20
21.3282
 30
0.0
 40
0
 41
0
  0
VERTEX
  8
0
 10
18.8271
 20
21.3247
 30
0.0
 40
0
 41
0
  0
VERTEX
  8
0
 10
18.8399
 20
21.3247
 30
0.0
 40
0
 41
0
  0
VERTEX
  8
0
 10
18.8642
 20
21.3247
 30
0.0
 40
0
 41
0
  0
VERTEX
  8
0
 10
18.9371
 20
21.3415
 30
0.0
 40
0
 41
0
  0
VERTEX
  8
0
 10
19.0136
 20
21.3881
 30
0.0
 40
0
 41
0
  0
VERTEX
  8
0
 10
19.0639
 20
21.4585
 30
0.0
 40
0
 41
0
  0
VERTEX
  8
0
 10
19.0818
 20
21.5246
 30
0.0
 40
0
 41
0
  0
VERTEX
  8
0
 10
19.0818
 20
21.5467
 30
0.0
 40
0
 41
0
  0
VERTEX
  8
0
 10
19.0818
 20
21.5608
 30
0.0
 40
0
 41
0
  0
VERTEX
  8
0
 10
19.0744
 20
21.6033
 30
0.0
 40
0
 41
0
  0
VERTEX
  8
0
 10
19.0544
 20
21.65
 30
0.0
 40
0
 41
0
  0
VERTEX
  8
0
 10
19.0249
 20
21.6868
 30
0.0
 40
0
 41
0
  0
VERTEX
  8
0
 10
18.9985
 20
21.7081
 30
0.0
 40
0
 41
0
  0
VERTEX
  8
0
 10
18.9887
 20
21.7136
 30
0.0
 40
0
 41
0
  0
VERTEX
  8
0
 10
18.9787
 20
21.7196
 30
0.0
 40
0
 41
0
  0
VERTEX
  8
0
 10
18.9226
 20
21.7401
 30
0.0
 40
0
 41
0
  0
VERTEX
  8
0
 10
18.8672
 20
21.7488
 30
0.0
 40
0
 41
0
  0
VERTEX
  8
0
 10
18.8487
 20
21.7488
 30
0.0
 40
0
 41
0
  0
VERTEX
  8
0
 10
18.8412
 20
21.7488
 30
0.0
 40
0
 41
0
  0
VERTEX
  8
0
 10
18.8189
 20
21.7474
 30
0.0
 40
0
 41
0
  0
VERTEX
  8
0
 10
18.7996
 20
21.745
 30
0.0
 40
0
 41
0
  0
VERTEX
  8
0
 10
18.7958
 20
21.7446
 30
0.0
 40
0
 41
0
  0
VERTEX
  8
0
 10
18.8208
 20
21.9117
 30
0.0
 40
0
 41
0
  0
VERTEX
  8
0
 10
19.0689
 20
21.9117
 30
0.0
 40
0
 41
0
  0
VERTEX
  8
0
 10
19.0689
 20
21.9854
 30
0.0
 40
0
 41
0
  0
SEQEND
 8
0
  0
POLYLINE
  8
0
 62
     0
 66
     1
 10
0
 20
0
 30
0.0
 70
     1
 40
0
 41
0
  0
VERTEX
  8
0
 10
19.2418
 20
22.0115
 30
0.0
 40
0
 41
0
  0
VERTEX
  8
0
 10
19.239
 20
21.9936
 30
0.0
 40
0
 41
0
  0
VERTEX
  8
0
 10
19.2161
 20
21.8892
 30
0.0
 40
0
 41
0
  0
VERTEX
  8
0
 10
19.1882
 20
21.7914
 30
0.0
 40
0
 41
0
  0
VERTEX
  8
0
 10
19.1829
 20
21.7767
 30
0.0
 40
0
 41
0
  0
VERTEX
  8
0
 10
19.2389
 20
21.7836
 30
0.0
 40
0
 41
0
  0
VERTEX
  8
0
 10
19.2453
 20
21.7944
 30
0.0
 40
0
 41
0
  0
VERTEX
  8
0
 10
19.2615
 20
21.8283
 30
0.0
 40
0
 41
0
  0
VERTEX
  8
0
 10
19.2868
 20
21.8879
 30
0.0
 40
0
 41
0
  0
VERTEX
  8
0
 10
19.3114
 20
21.9546
 30
0.0
 40
0
 41
0
  0
VERTEX
  8
0
 10
19.3272
 20
22.004
 30
0.0
 40
0
 41
0
  0
VERTEX
  8
0
 10
19.3318
 20
22.0206
 30
0.0
 40
0
 41
0
  0
VERTEX
  8
0
 10
19.2418
 20
22.0115
 30
0.0
 40
0
 41
0
  0
SEQEND
 8
0
  0
POLYLINE
  8
0
 62
     0
 66
     1
 10
0
 20
0
 30
0.0
 70
     1
 40
0
 41
0
  0
VERTEX
  8
0
 10
19.3897
 20
22.0115
 30
0.0
 40
0
 41
0
  0
VERTEX
  8
0
 10
19.3871
 20
21.9936
 30
0.0
 40
0
 41
0
  0
VERTEX
  8
0
 10
19.3644
 20
21.8892
 30
0.0
 40
0
 41
0
  0
VERTEX
  8
0
 10
19.3362
 20
21.7914
 30
0.0
 40
0
 41
0
  0
VERTEX
  8
0
 10
19.3307
 20
21.7767
 30
0.0
 40
0
 41
0
  0
VERTEX
  8
0
 10
19.3867
 20
21.7836
 30
0.0
 40
0
 41
0
  0
VERTEX
  8
0
 10
19.3931
 20
21.7944
 30
0.0
 40
0
 41
0
  0
VERTEX
  8
0
 10
19.4094
 20
21.8283
 30
0.0
 40
0
 41
0
  0
VERTEX
  8
0
 10
19.4347
 20
21.8879
 30
0.0
 40
0
 41
0
  0
VERTEX
  8
0
 10
19.4593
 20
21.9546
 30
0.0
 40
0
 41
0
  0
VERTEX
  8
0
 10
19.4753
 20
22.004
 30
0.0
 40
0
 41
0
  0
VERTEX
  8
0
 10
19.4799
 20
22.0206
 30
0.0
 40
0
 41
0
  0
VERTEX
  8
0
 10
19.3897
 20
22.0115
 30
0.0
 40
0
 41
0
  0
SEQEND
 8
0
  0
POLYLINE
  8
0
 62
     0
 66
     1
 10
0
 20
0
 30
0.0
 70
     1
 40
0
 41
0
  0
VERTEX
  8
0
 10
19.6449
 20
21.8197
 30
0.0
 40
0
 41
0
  0
VERTEX
  8
0
 10
19.8087
 20
21.5826
 30
0.0
 40
0
 41
0
  0
VERTEX
  8
0
 10
19.6368
 20
21.3357
 30
0.0
 40
0
 41
0
  0
VERTEX
  8
0
 10
19.7339
 20
21.3357
 30
0.0
 40
0
 41
0
  0
VERTEX
  8
0
 10
19.8038
 20
21.4447
 30
0.0
 40
0
 41
0
  0
VERTEX
  8
0
 10
19.8082
 20
21.4519
 30
0.0
 40
0
 41
0
  0
VERTEX
  8
0
 10
19.8507
 20
21.5214
 30
0.0
 40
0
 41
0
  0
VERTEX
  8
0
 10
19.8547
 20
21.5286
 30
0.0
 40
0
 41
0
  0
VERTEX
  8
0
 10
19.8567
 20
21.5286
 30
0.0
 40
0
 41
0
  0
VERTEX
  8
0
 10
19.861
 20
21.5214
 30
0.0
 40
0
 41
0
  0
VERTEX
  8
0
 10
19.904
 20
21.4517
 30
0.0
 40
0
 41
0
  0
VERTEX
  8
0
 10
19.9088
 20
21.4447
 30
0.0
 40
0
 41
0
  0
VERTEX
  8
0
 10
19.9797
 20
21.3357
 30
0.0
 40
0
 41
0
  0
VERTEX
  8
0
 10
20.0797
 20
21.3357
 30
0.0
 40
0
 41
0
  0
VERTEX
  8
0
 10
19.9099
 20
21.5857
 30
0.0
 40
0
 41
0
  0
VERTEX
  8
0
 10
20.0747
 20
21.8197
 30
0.0
 40
0
 41
0
  0
VERTEX
  8
0
 10
19.9797
 20
21.8197
 30
0.0
 40
0
 41
0
  0
VERTEX
  8
0
 10
19.9118
 20
21.7165
 30
0.0
 40
0
 41
0
  0
VERTEX
  8
0
 10
19.9078
 20
21.7101
 30
0.0
 40
0
 41
0
  0
VERTEX
  8
0
 10
19.8678
 20
21.6439
 30
0.0
 40
0
 41
0
  0
VERTEX
  8
0
 10
19.8639
 20
21.6367
 30
0.0
 40
0
 41
0
  0
VERTEX
  8
0
 10
19.8608
 20
21.6367
 30
0.0
 40
0
 41
0
  0
VERTEX
  8
0
 10
19.8568
 20
21.6435
 30
0.0
 40
0
 41
0
  0
VERTEX
  8
0
 10
19.8163
 20
21.7089
 30
0.0
 40
0
 41
0
  0
VERTEX
  8
0
 10
19.8118
 20
21.7157
 30
0.0
 40
0
 41
0
  0
VERTEX
  8
0
 10
19.7428
 20
21.8197
 30
0.0
 40
0
 41
0
  0
VERTEX
  8
0
 10
19.6449
 20
21.8197
 30
0.0
 40
0
 41
0
  0
SEQEND
 8
0
  0
POLYLINE
  8
0
 62
     0
 66
     1
 10
0
 20
0
 30
0.0
 70
     1
 40
0
 41
0
  0
VERTEX
  8
0
 10
20.5397
 20
21.3357
 30
0.0
 40
0
 41
0
  0
VERTEX
  8
0
 10
20.6247
 20
21.3357
 30
0.0
 40
0
 41
0
  0
VERTEX
  8
0
 10
20.6247
 20
21.9854
 30
0.0
 40
0
 41
0
  0
VERTEX
  8
0
 10
20.5496
 20
21.9854
 30
0.0
 40
0
 41
0
  0
VERTEX
  8
0
 10
20.4078
 20
21.9094
 30
0.0
 40
0
 41
0
  0
VERTEX
  8
0
 10
20.4246
 20
21.8426
 30
0.0
 40
0
 41
0
  0
VERTEX
  8
0
 10
20.5376
 20
21.9036
 30
0.0
 40
0
 41
0
  0
VERTEX
  8
0
 10
20.5397
 20
21.9036
 30
0.0
 40
0
 41
0
  0
VERTEX
  8
0
 10
20.5397
 20
21.3357
 30
0.0
 40
0
 41
0
  0
SEQEND
 8
0
  0
POLYLINE
  8
0
 62
     0
 66
     1
 10
0
 20
0
 30
0.0
 70
     1
 40
0
 41
0
  0
VERTEX
  8
0
 10
21.2497
 20
21.9854
 30
0.0
 40
0
 41
0
  0
VERTEX
  8
0
 10
20.9387
 20
21.9854
 30
0.0
 40
0
 41
0
  0
VERTEX
  8
0
 10
20.8968
 20
21.6736
 30
0.0
 40
0
 41
0
  0
VERTEX
  8
0
 10
20.9028
 20
21.6743
 30
0.0
 40
0
 41
0
  0
VERTEX
  8
0
 10
20.9368
 20
21.6782
 30
0.0
 40
0
 41
0
  0
VERTEX
  8
0
 10
20.9742
 20
21.6806
 30
0.0
 40
0
 41
0
  0
VERTEX
  8
0
 10
20.9867
 20
21.6806
 30
0.0
 40
0
 41
0
  0
VERTEX
  8
0
 10
21.0076
 20
21.6806
 30
0.0
 40
0
 41
0
  0
VERTEX
  8
0
 10
21.0706
 20
21.6699
 30
0.0
 40
0
 41
0
  0
VERTEX
  8
0
 10
21.1285
 20
21.6401
 30
0.0
 40
0
 41
0
  0
VERTEX
  8
0
 10
21.1622
 20
21.5946
 30
0.0
 40
0
 41
0
  0
VERTEX
  8
0
 10
21.1735
 20
21.5512
 30
0.0
 40
0
 41
0
  0
VERTEX
  8
0
 10
21.1738
 20
21.5367
 30
0.0
 40
0
 41
0
  0
VERTEX
  8
0
 10
21.1738
 20
21.5221
 30
0.0
 40
0
 41
0
  0
VERTEX
  8
0
 10
21.1612
 20
21.4779
 30
0.0
 40
0
 41
0
  0
VERTEX
  8
0
 10
21.1278
 20
21.4335
 30
0.0
 40
0
 41
0
  0
VERTEX
  8
0
 10
21.0788
 20
21.4054
 30
0.0
 40
0
 41
0
  0
VERTEX
  8
0
 10
21.0344
 20
21.3956
 30
0.0
 40
0
 41
0
  0
VERTEX
  8
0
 10
21.0196
 20
21.3956
 30
0.0
 40
0
 41
0
  0
VERTEX
  8
0
 10
21.0089
 20
21.3956
 30
0.0
 40
0
 41
0
  0
VERTEX
  8
0
 10
20.9768
 20
21.399
 30
0.0
 40
0
 41
0
  0
VERTEX
  8
0
 10
20.9382
 20
21.4078
 30
0.0
 40
0
 41
0
  0
VERTEX
  8
0
 10
20.9056
 20
21.4194
 30
0.0
 40
0
 41
0
  0
VERTEX
  8
0
 10
20.8867
 20
21.4282
 30
0.0
 40
0
 41
0
  0
VERTEX
  8
0
 10
20.8807
 20
21.4317
 30
0.0
 40
0
 41
0
  0
VERTEX
  8
0
 10
20.8586
 20
21.3649
 30
0.0
 40
0
 41
0
  0
VERTEX
  8
0
 10
20.8653
 20
21.3604
 30
0.0
 40
0
 41
0
  0
VERTEX
  8
0
 10
20.8871
 20
21.35
 30
0.0
 40
0
 41
0
  0
VERTEX
  8
0
 10
20.9247
 20
21.3372
 30
0.0
 40
0
 41
0
  0
VERTEX
  8
0
 10
20.9697
 20
21.3282
 30
0.0
 40
0
 41
0
  0
VERTEX
  8
0
 10
21.0079
 20
21.3247
 30
0.0
 40
0
 41
0
  0
VERTEX
  8
0
 10
21.0207
 20
21.3247
 30
0.0
 40
0
 41
0
  0
VERTEX
  8
0
 10
21.045
 20
21.3247
 30
0.0
 40
0
 41
0
  0
VERTEX
  8
0
 10
21.1179
 20
21.3415
 30
0.0
 40
0
 41
0
  0
VERTEX
  8
0
 10
21.1944
 20
21.3881
 30
0.0
 40
0
 41
0
  0
VERTEX
  8
0
 10
21.2447
 20
21.4585
 30
0.0
 40
0
 41
0
  0
VERTEX
  8
0
 10
21.2626
 20
21.5246
 30
0.0
 40
0
 41
0
  0
VERTEX
  8
0
 10
21.2626
 20
21.5467
 30
0.0
 40
0
 41
0
  0
VERTEX
  8
0
 10
21.2626
 20
21.5608
 30
0.0
 40
0
 41
0
  0
VERTEX
  8
0
 10
21.2553
 20
21.6033
 30
0.0
 40
0
 41
0
  0
VERTEX
  8
0
 10
21.2353
 20
21.65
 30
0.0
 40
0
 41
0
  0
VERTEX
  8
0
 10
21.2056
 20
21.6868
 30
0.0
 40
0
 41
0
  0
VERTEX
  8
0
 10
21.1793
 20
21.7081
 30
0.0
 40
0
 41
0
  0
VERTEX
  8
0
 10
21.1696
 20
21.7136
 30
0.0
 40
0
 41
0
  0
VERTEX
  8
0
 10
21.1596
 20
21.7196
 30
0.0
 40
0
 41
0
  0
VERTEX
  8
0
 10
21.1035
 20
21.7401
 30
0.0
 40
0
 41
0
  0
VERTEX
  8
0
 10
21.0481
 20
21.7488
 30
0.0
 40
0
 41
0
  0
VERTEX
  8
0
 10
21.0296
 20
21.7488
 30
0.0
 40
0
 41
0
  0
VERTEX
  8
0
 10
21.0221
 20
21.7488
 30
0.0
 40
0
 41
0
  0
VERTEX
  8
0
 10
20.9997
 20
21.7474
 30
0.0
 40
0
 41
0
  0
VERTEX
  8
0
 10
20.9804
 20
21.745
 30
0.0
 40
0
 41
0
  0
VERTEX
  8
0
 10
20.9767
 20
21.7446
 30
0.0
 40
0
 41
0
  0
VERTEX
  8
0
 10
21.0017
 20
21.9117
 30
0.0
 40
0
 41
0
  0
VERTEX
  8
0
 10
21.2497
 20
21.9117
 30
0.0
 40
0
 41
0
  0
VERTEX
  8
0
 10
21.2497
 20
21.9854
 30
0.0
 40
0
 41
0
  0
SEQEND
 8
0
  0
POLYLINE
  8
0
 62
     0
 66
     1
 10
0
 20
0
 30
0.0
 70
     1
 40
0
 41
0
  0
VERTEX
  8
0
 10
21.4406
 20
21.3247
 30
0.0
 40
0
 41
0
  0
VERTEX
  8
0
 10
21.4468
 20
21.3247
 30
0.0
 40
0
 41
0
  0
VERTEX
  8
0
 10
21.4656
 20
21.3294
 30
0.0
 40
0
 41
0
  0
VERTEX
  8
0
 10
21.4846
 20
21.3428
 30
0.0
 40
0
 41
0
  0
VERTEX
  8
0
 10
21.4965
 20
21.3628
 30
0.0
 40
0
 41
0
  0
VERTEX
  8
0
 10
21.5007
 20
21.3815
 30
0.0
 40
0
 41
0
  0
VERTEX
  8
0
 10
21.5007
 20
21.3878
 30
0.0
 40
0
 41
0
  0
VERTEX
  8
0
 10
21.5007
 20
21.3942
 30
0.0
 40
0
 41
0
  0
VERTEX
  8
0
 10
21.4964
 20
21.4132
 30
0.0
 40
0
 41
0
  0
VERTEX
  8
0
 10
21.4843
 20
21.4331
 30
0.0
 40
0
 41
0
  0
VERTEX
  8
0
 10
21.4656
 20
21.4461
 30
0.0
 40
0
 41
0
  0
VERTEX
  8
0
 10
21.4476
 20
21.4507
 30
0.0
 40
0
 41
0
  0
VERTEX
  8
0
 10
21.4417
 20
21.4507
 30
0.0
 40
0
 41
0
  0
VERTEX
  8
0
 10
21.4356
 20
21.4507
 30
0.0
 40
0
 41
0
  0
VERTEX
  8
0
 10
21.4175
 20
21.4461
 30
0.0
 40
0
 41
0
  0
VERTEX
  8
0
 10
21.3986
 20
21.4331
 30
0.0
 40
0
 41
0
  0
VERTEX
  8
0
 10
21.3861
 20
21.4132
 30
0.0
 40
0
 41
0
  0
VERTEX
  8
0
 10
21.3818
 20
21.3942
 30
0.0
 40
0
 41
0
  0
VERTEX
  8
0
 10
21.3818
 20
21.3878
 30
0.0
 40
0
 41
0
  0
VERTEX
  8
0
 10
21.3818
 20
21.3815
 30
0.0
 40
0
 41
0
  0
VERTEX
  8
0
 10
21.386
 20
21.3628
 30
0.0
 40
0
 41
0
  0
VERTEX
  8
0
 10
21.3981
 20
21.3428
 30
0.0
 40
0
 41
0
  0
VERTEX
  8
0
 10
21.4167
 20
21.3294
 30
0.0
 40
0
 41
0
  0
VERTEX
  8
0
 10
21.4346
 20
21.3247
 30
0.0
 40
0
 41
0
  0
VERTEX
  8
0
 10
21.4406
 20
21.3247
 30
0.0
 40
0
 41
0
  0
SEQEND
 8
0
  0
POLYLINE
  8
0
 62
     0
 66
     1
 10
0
 20
0
 30
0.0
 70
     1
 40
0
 41
0
  0
VERTEX
  8
0
 10
21.9696
 20
21.9854
 30
0.0
 40
0
 41
0
  0
VERTEX
  8
0
 10
21.6586
 20
21.9854
 30
0.0
 40
0
 41
0
  0
VERTEX
  8
0
 10
21.6168
 20
21.6736
 30
0.0
 40
0
 41
0
  0
VERTEX
  8
0
 10
21.6228
 20
21.6743
 30
0.0
 40
0
 41
0
  0
VERTEX
  8
0
 10
21.6568
 20
21.6782
 30
0.0
 40
0
 41
0
  0
VERTEX
  8
0
 10
21.6942
 20
21.6806
 30
0.0
 40
0
 41
0
  0
VERTEX
  8
0
 10
21.7067
 20
21.6806
 30
0.0
 40
0
 41
0
  0
VERTEX
  8
0
 10
21.7275
 20
21.6806
 30
0.0
 40
0
 41
0
  0
VERTEX
  8
0
 10
21.7904
 20
21.6699
 30
0.0
 40
0
 41
0
  0
VERTEX
  8
0
 10
21.8485
 20
21.6401
 30
0.0
 40
0
 41
0
  0
VERTEX
  8
0
 10
21.8822
 20
21.5946
 30
0.0
 40
0
 41
0
  0
VERTEX
  8
0
 10
21.8935
 20
21.5512
 30
0.0
 40
0
 41
0
  0
VERTEX
  8
0
 10
21.8936
 20
21.5367
 30
0.0
 40
0
 41
0
  0
VERTEX
  8
0
 10
21.8936
 20
21.5221
 30
0.0
 40
0
 41
0
  0
VERTEX
  8
0
 10
21.8812
 20
21.4779
 30
0.0
 40
0
 41
0
  0
VERTEX
  8
0
 10
21.8478
 20
21.4335
 30
0.0
 40
0
 41
0
  0
VERTEX
  8
0
 10
21.7988
 20
21.4054
 30
0.0
 40
0
 41
0
  0
VERTEX
  8
0
 10
21.7543
 20
21.3956
 30
0.0
 40
0
 41
0
  0
VERTEX
  8
0
 10
21.7396
 20
21.3956
 30
0.0
 40
0
 41
0
  0
VERTEX
  8
0
 10
21.7289
 20
21.3956
 30
0.0
 40
0
 41
0
  0
VERTEX
  8
0
 10
21.6967
 20
21.399
 30
0.0
 40
0
 41
0
  0
VERTEX
  8
0
 10
21.6581
 20
21.4078
 30
0.0
 40
0
 41
0
  0
VERTEX
  8
0
 10
21.6254
 20
21.4194
 30
0.0
 40
0
 41
0
  0
VERTEX
  8
0
 10
21.6067
 20
21.4282
 30
0.0
 40
0
 41
0
  0
VERTEX
  8
0
 10
21.6007
 20
21.4317
 30
0.0
 40
0
 41
0
  0
VERTEX
  8
0
 10
21.5786
 20
21.3649
 30
0.0
 40
0
 41
0
  0
VERTEX
  8
0
 10
21.5853
 20
21.3604
 30
0.0
 40
0
 41
0
  0
VERTEX
  8
0
 10
21.6069
 20
21.35
 30
0.0
 40
0
 41
0
  0
VERTEX
  8
0
 10
21.6446
 20
21.3372
 30
0.0
 40
0
 41
0
  0
VERTEX
  8
0
 10
21.6897
 20
21.3282
 30
0.0
 40
0
 41
0
  0
VERTEX
  8
0
 10
21.7279
 20
21.3247
 30
0.0
 40
0
 41
0
  0
VERTEX
  8
0
 10
21.7407
 20
21.3247
 30
0.0
 40
0
 41
0
  0
VERTEX
  8
0
 10
21.765
 20
21.3247
 30
0.0
 40
0
 41
0
  0
VERTEX
  8
0
 10
21.8379
 20
21.3415
 30
0.0
 40
0
 41
0
  0
VERTEX
  8
0
 10
21.9144
 20
21.3881
 30
0.0
 40
0
 41
0
  0
VERTEX
  8
0
 10
21.9646
 20
21.4585
 30
0.0
 40
0
 41
0
  0
VERTEX
  8
0
 10
21.9826
 20
21.5246
 30
0.0
 40
0
 41
0
  0
VERTEX
  8
0
 10
21.9826
 20
21.5467
 30
0.0
 40
0
 41
0
  0
VERTEX
  8
0
 10
21.9826
 20
21.5608
 30
0.0
 40
0
 41
0
  0
VERTEX
  8
0
 10
21.9753
 20
21.6033
 30
0.0
 40
0
 41
0
  0
VERTEX
  8
0
 10
21.9551
 20
21.65
 30
0.0
 40
0
 41
0
  0
VERTEX
  8
0
 10
21.9256
 20
21.6868
 30
0.0
 40
0
 41
0
  0
VERTEX
  8
0
 10
21.8992
 20
21.7081
 30
0.0
 40
0
 41
0
  0
VERTEX
  8
0
 10
21.8896
 20
21.7136
 30
0.0
 40
0
 41
0
  0
VERTEX
  8
0
 10
21.8796
 20
21.7196
 30
0.0
 40
0
 41
0
  0
VERTEX
  8
0
 10
21.8233
 20
21.7401
 30
0.0
 40
0
 41
0
  0
VERTEX
  8
0
 10
21.7681
 20
21.7488
 30
0.0
 40
0
 41
0
  0
VERTEX
  8
0
 10
21.7496
 20
21.7488
 30
0.0
 40
0
 41
0
  0
VERTEX
  8
0
 10
21.7421
 20
21.7488
 30
0.0
 40
0
 41
0
  0
VERTEX
  8
0
 10
21.7197
 20
21.7474
 30
0.0
 40
0
 41
0
  0
VERTEX
  8
0
 10
21.7004
 20
21.745
 30
0.0
 40
0
 41
0
  0
VERTEX
  8
0
 10
21.6967
 20
21.7446
 30
0.0
 40
0
 41
0
  0
VERTEX
  8
0
 10
21.7215
 20
21.9117
 30
0.0
 40
0
 41
0
  0
VERTEX
  8
0
 10
21.9696
 20
21.9117
 30
0.0
 40
0
 41
0
  0
VERTEX
  8
0
 10
21.9696
 20
21.9854
 30
0.0
 40
0
 41
0
  0
SEQEND
 8
0
  0
POLYLINE
  8
0
 62
     0
 66
     1
 10
0
 20
0
 30
0.0
 70
     1
 40
0
 41
0
  0
VERTEX
  8
0
 10
22.1425
 20
22.0115
 30
0.0
 40
0
 41
0
  0
VERTEX
  8
0
 10
22.1399
 20
21.9936
 30
0.0
 40
0
 41
0
  0
VERTEX
  8
0
 10
22.1168
 20
21.8892
 30
0.0
 40
0
 41
0
  0
VERTEX
  8
0
 10
22.0889
 20
21.7914
 30
0.0
 40
0
 41
0
  0
VERTEX
  8
0
 10
22.0838
 20
21.7767
 30
0.0
 40
0
 41
0
  0
VERTEX
  8
0
 10
22.1397
 20
21.7836
 30
0.0
 40
0
 41
0
  0
VERTEX
  8
0
 10
22.146
 20
21.7944
 30
0.0
 40
0
 41
0
  0
VERTEX
  8
0
 10
22.1624
 20
21.8283
 30
0.0
 40
0
 41
0
  0
VERTEX
  8
0
 10
22.1876
 20
21.8879
 30
0.0
 40
0
 41
0
  0
VERTEX
  8
0
 10
22.2121
 20
21.9546
 30
0.0
 40
0
 41
0
  0
VERTEX
  8
0
 10
22.2281
 20
22.004
 30
0.0
 40
0
 41
0
  0
VERTEX
  8
0
 10
22.2326
 20
22.0206
 30
0.0
 40
0
 41
0
  0
VERTEX
  8
0
 10
22.1425
 20
22.0115
 30
0.0
 40
0
 41
0
  0
SEQEND
 8
0
  0
POLYLINE
  8
0
 62
     0
 66
     1
 10
0
 20
0
 30
0.0
 70
     1
 40
0
 41
0
  0
VERTEX
  8
0
 10
22.2906
 20
22.0115
 30
0.0
 40
0
 41
0
  0
VERTEX
  8
0
 10
22.2878
 20
21.9936
 30
0.0
 40
0
 41
0
  0
VERTEX
  8
0
 10
22.2653
 20
21.8892
 30
0.0
 40
0
 41
0
  0
VERTEX
  8
0
 10
22.2371
 20
21.7914
 30
0.0
 40
0
 41
0
  0
VERTEX
  8
0
 10
22.2315
 20
21.7767
 30
0.0
 40
0
 41
0
  0
VERTEX
  8
0
 10
22.2875
 20
21.7836
 30
0.0
 40
0
 41
0
  0
VERTEX
  8
0
 10
22.2939
 20
21.7944
 30
0.0
 40
0
 41
0
  0
VERTEX
  8
0
 10
22.3103
 20
21.8283
 30
0.0
 40
0
 41
0
  0
VERTEX
  8
0
 10
22.3356
 20
21.8879
 30
0.0
 40
0
 41
0
  0
VERTEX
  8
0
 10
22.3601
 20
21.9546
 30
0.0
 40
0
 41
0
  0
VERTEX
  8
0
 10
22.376
 20
22.004
 30
0.0
 40
0
 41
0
  0
VERTEX
  8
0
 10
22.3806
 20
22.0206
 30
0.0
 40
0
 41
0
  0
VERTEX
  8
0
 10
22.2906
 20
22.0115
 30
0.0
 40
0
 41
0
  0
SEQEND
 8
0
  0
POLYLINE
  8
0
 62
     0
 66
     1
 10
0
 20
0
 30
0.0
 70
     1
 40
0
 41
0
  0
VERTEX
  8
0
 10
3.57596
 20
20.1357
 30
0.0
 40
0
 41
0
  0
VERTEX
  8
0
 10
3.66297
 20
20.1357
 30
0.0
 40
0
 41
0
  0
VERTEX
  8
0
 10
3.66297
 20
20.4276
 30
0.0
 40
0
 41
0
  0
VERTEX
  8
0
 10
3.74501
 20
20.4276
 30
0.0
 40
0
 41
0
  0
VERTEX
  8
0
 10
3.75792
 20
20.4271
 30
0.0
 40
0
 41
0
  0
VERTEX
  8
0
 10
3.79656
 20
20.4189
 30
0.0
 40
0
 41
0
  0
VERTEX
  8
0
 10
3.83453
 20
20.3958
 30
0.0
 40
0
 41
0
  0
VERTEX
  8
0
 10
3.86149
 20
20.356
 30
0.0
 40
0
 41
0
  0
VERTEX
  8
0
 10
3.87668
 20
20.3118
 30
0.0
 40
0
 41
0
  0
VERTEX
  8
0
 10
3.87999
 20
20.2967
 30
0.0
 40
0
 41
0
  0
VERTEX
  8
0
 10
3.88325
 20
20.2822
 30
0.0
 40
0
 41
0
  0
VERTEX
  8
0
 10
3.89339
 20
20.2389
 30
0.0
 40
0
 41
0
  0
VERTEX
  8
0
 10
3.90539
 20
20.1919
 30
0.0
 40
0
 41
0
  0
VERTEX
  8
0
 10
3.91585
 20
20.1571
 30
0.0
 40
0
 41
0
  0
VERTEX
  8
0
 10
3.92215
 20
20.1404
 30
0.0
 40
0
 41
0
  0
VERTEX
  8
0
 10
3.92492
 20
20.1357
 30
0.0
 40
0
 41
0
  0
VERTEX
  8
0
 10
4.01497
 20
20.1357
 30
0.0
 40
0
 41
0
  0
VERTEX
  8
0
 10
4.01156
 20
20.1421
 30
0.0
 40
0
 41
0
  0
VERTEX
  8
0
 10
4.00396
 20
20.1624
 30
0.0
 40
0
 41
0
  0
VERTEX
  8
0
 10
3.99186
 20
20.2026
 30
0.0
 40
0
 41
0
  0
VERTEX
  8
0
 10
3.97825
 20
20.2557
 30
0.0
 40
0
 41
0
  0
VERTEX
  8
0
 10
3.96664
 20
20.3044
 30
0.0
 40
0
 41
0
  0
VERTEX
  8
0
 10
3.96289
 20
20.3206
 30
0.0
 40
0
 41
0
  0
VERTEX
  8
0
 10
3.96007
 20
20.3329
 30
0.0
 40
0
 41
0
  0
VERTEX
  8
0
 10
3.94792
 20
20.3689
 30
0.0
 40
0
 41
0
  0
VERTEX
  8
0
 10
3.92681
 20
20.4082
 30
0.0
 40
0
 41
0
  0
VERTEX
  8
0
 10
3.89899
 20
20.4376
 30
0.0
 40
0
 41
0
  0
VERTEX
  8
0
 10
3.87321
 20
20.4535
 30
0.0
 40
0
 41
0
  0
VERTEX
  8
0
 10
3.86393
 20
20.4567
 30
0.0
 40
0
 41
0
  0
VERTEX
  8
0
 10
3.86393
 20
20.4597
 30
0.0
 40
0
 41
0
  0
VERTEX
  8
0
 10
3.8769
 20
20.464
 30
0.0
 40
0
 41
0
  0
VERTEX
  8
0
 10
3.91368
 20
20.4842
 30
0.0
 40
0
 41
0
  0
VERTEX
  8
0
 10
3.954
 20
20.5213
 30
0.0
 40
0
 41
0
  0
VERTEX
  8
0
 10
3.98101
 20
20.5706
 30
0.0
 40
0
 41
0
  0
VERTEX
  8
0
 10
3.99089
 20
20.6164
 30
0.0
 40
0
 41
0
  0
VERTEX
  8
0
 10
3.99089
 20
20.6315
 30
0.0
 40
0
 41
0
  0
VERTEX
  8
0
 10
3.99089
 20
20.6496
 30
0.0
 40
0
 41
0
  0
VERTEX
  8
0
 10
3.97711
 20
20.7039
 30
0.0
 40
0
 41
0
  0
VERTEX
  8
0
 10
3.9464
 20
20.7521
 30
0.0
 40
0
 41
0
  0
VERTEX
  8
0
 10
3.93793
 20
20.7596
 30
0.0
 40
0
 41
0
  0
VERTEX
  8
0
 10
3.93001
 20
20.7668
 30
0.0
 40
0
 41
0
  0
VERTEX
  8
0
 10
3.90278
 20
20.7842
 30
0.0
 40
0
 41
0
  0
VERTEX
  8
0
 10
3.85949
 20
20.8014
 30
0.0
 40
0
 41
0
  0
VERTEX
  8
0
 10
3.80664
 20
20.8113
 30
0.0
 40
0
 41
0
  0
VERTEX
  8
0
 10
3.75879
 20
20.8144
 30
0.0
 40
0
 41
0
  0
VERTEX
  8
0
 10
3.74283
 20
20.8144
 30
0.0
 40
0
 41
0
  0
VERTEX
  8
0
 10
3.72049
 20
20.8144
 30
0.0
 40
0
 41
0
  0
VERTEX
  8
0
 10
3.65343
 20
20.811
 30
0.0
 40
0
 41
0
  0
VERTEX
  8
0
 10
3.58697
 20
20.8028
 30
0.0
 40
0
 41
0
  0
VERTEX
  8
0
 10
3.57596
 20
20.8006
 30
0.0
 40
0
 41
0
  0
VERTEX
  8
0
 10
3.57596
 20
20.1357
 30
0.0
 40
0
 41
0
  0
SEQEND
 8
0
  0
POLYLINE
  8
0
 62
     0
 66
     1
 10
0
 20
0
 30
0.0
 70
     1
 40
0
 41
0
  0
VERTEX
  8
0
 10
3.66297
 20
20.7396
 30
0.0
 40
0
 41
0
  0
VERTEX
  8
0
 10
3.66644
 20
20.7406
 30
0.0
 40
0
 41
0
  0
VERTEX
  8
0
 10
3.69542
 20
20.745
 30
0.0
 40
0
 41
0
  0
VERTEX
  8
0
 10
3.73551
 20
20.7475
 30
0.0
 40
0
 41
0
  0
VERTEX
  8
0
 10
3.74892
 20
20.7475
 30
0.0
 40
0
 41
0
  0
VERTEX
  8
0
 10
3.76465
 20
20.7474
 30
0.0
 40
0
 41
0
  0
VERTEX
  8
0
 10
3.8119
 20
20.7397
 30
0.0
 40
0
 41
0
  0
VERTEX
  8
0
 10
3.86089
 20
20.7168
 30
0.0
 40
0
 41
0
  0
VERTEX
  8
0
 10
3.89258
 20
20.6778
 30
0.0
 40
0
 41
0
  0
VERTEX
  8
0
 10
3.90386
 20
20.6357
 30
0.0
 40
0
 41
0
  0
VERTEX
  8
0
 10
3.90386
 20
20.6215
 30
0.0
 40
0
 41
0
  0
VERTEX
  8
0
 10
3.90386
 20
20.6085
 30
0.0
 40
0
 41
0
  0
VERTEX
  8
0
 10
3.89318
 20
20.5692
 30
0.0
 40
0
 41
0
  0
VERTEX
  8
0
 10
3.86274
 20
20.5287
 30
0.0
 40
0
 41
0
  0
VERTEX
  8
0
 10
3.81483
 20
20.5028
 30
0.0
 40
0
 41
0
  0
VERTEX
  8
0
 10
3.76764
 20
20.4936
 30
0.0
 40
0
 41
0
  0
VERTEX
  8
0
 10
3.75196
 20
20.4936
 30
0.0
 40
0
 41
0
  0
VERTEX
  8
0
 10
3.66297
 20
20.4936
 30
0.0
 40
0
 41
0
  0
VERTEX
  8
0
 10
3.66297
 20
20.7396
 30
0.0
 40
0
 41
0
  0
SEQEND
 8
0
  0
POLYLINE
  8
0
 62
     0
 66
     1
 10
0
 20
0
 30
0.0
 70
     1
 40
0
 41
0
  0
VERTEX
  8
0
 10
4.49783
 20
20.1357
 30
0.0
 40
0
 41
0
  0
VERTEX
  8
0
 10
4.49783
 20
20.2086
 30
0.0
 40
0
 41
0
  0
VERTEX
  8
0
 10
4.20594
 20
20.2086
 30
0.0
 40
0
 41
0
  0
VERTEX
  8
0
 10
4.20594
 20
20.2108
 30
0.0
 40
0
 41
0
  0
VERTEX
  8
0
 10
4.25782
 20
20.2588
 30
0.0
 40
0
 41
0
  0
VERTEX
  8
0
 10
4.28147
 20
20.2815
 30
0.0
 40
0
 41
0
  0
VERTEX
  8
0
 10
4.35064
 20
20.3521
 30
0.0
 40
0
 41
0
  0
VERTEX
  8
0
 10
4.42122
 20
20.4376
 30
0.0
 40
0
 41
0
  0
VERTEX
  8
0
 10
4.46604
 20
20.5211
 30
0.0
 40
0
 41
0
  0
VERTEX
  8
0
 10
4.48178
 20
20.5858
 30
0.0
 40
0
 41
0
  0
VERTEX
  8
0
 10
4.48178
 20
20.6075
 30
0.0
 40
0
 41
0
  0
VERTEX
  8
0
 10
4.48178
 20
20.6163
 30
0.0
 40
0
 41
0
  0
VERTEX
  8
0
 10
4.47894
 20
20.6424
 30
0.0
 40
0
 41
0
  0
VERTEX
  8
0
 10
4.47038
 20
20.6764
 30
0.0
 40
0
 41
0
  0
VERTEX
  8
0
 10
4.45574
 20
20.7082
 30
0.0
 40
0
 41
0
  0
VERTEX
  8
0
 10
4.43485
 20
20.7369
 30
0.0
 40
0
 41
0
  0
VERTEX
  8
0
 10
4.40739
 20
20.7613
 30
0.0
 40
0
 41
0
  0
VERTEX
  8
0
 10
4.37304
 20
20.78
 30
0.0
 40
0
 41
0
  0
VERTEX
  8
0
 10
4.33171
 20
20.7922
 30
0.0
 40
0
 41
0
  0
VERTEX
  8
0
 10
4.29514
 20
20.7965
 30
0.0
 40
0
 41
0
  0
VERTEX
  8
0
 10
4.28299
 20
20.7965
 30
0.0
 40
0
 41
0
  0
VERTEX
  8
0
 10
4.26942
 20
20.7965
 30
0.0
 40
0
 41
0
  0
VERTEX
  8
0
 10
4.22885
 20
20.7915
 30
0.0
 40
0
 41
0
  0
VERTEX
  8
0
 10
4.17964
 20
20.7778
 30
0.0
 40
0
 41
0
  0
VERTEX
  8
0
 10
4.13607
 20
20.7569
 30
0.0
 40
0
 41
0
  0
VERTEX
  8
0
 10
4.10758
 20
20.7379
 30
0.0
 40
0
 41
0
  0
VERTEX
  8
0
 10
4.09896
 20
20.7306
 30
0.0
 40
0
 41
0
  0
VERTEX
  8
0
 10
4.12696
 20
20.6685
 30
0.0
 40
0
 41
0
  0
VERTEX
  8
0
 10
4.13308
 20
20.6736
 30
0.0
 40
0
 41
0
  0
VERTEX
  8
0
 10
4.15283
 20
20.6878
 30
0.0
 40
0
 41
0
  0
VERTEX
  8
0
 10
4.18506
 20
20.7054
 30
0.0
 40
0
 41
0
  0
VERTEX
  8
0
 10
4.22271
 20
20.7185
 30
0.0
 40
0
 41
0
  0
VERTEX
  8
0
 10
4.25439
 20
20.7236
 30
0.0
 40
0
 41
0
  0
VERTEX
  8
0
 10
4.26497
 20
20.7236
 30
0.0
 40
0
 41
0
  0
VERTEX
  8
0
 10
4.28022
 20
20.7236
 30
0.0
 40
0
 41
0
  0
VERTEX
  8
0
 10
4.32601
 20
20.7131
 30
0.0
 40
0
 41
0
  0
VERTEX
  8
0
 10
4.36578
 20
20.6849
 30
0.0
 40
0
 41
0
  0
VERTEX
  8
0
 10
4.38737
 20
20.6443
 30
0.0
 40
0
 41
0
  0
VERTEX
  8
0
 10
4.39388
 20
20.6086
 30
0.0
 40
0
 41
0
  0
VERTEX
  8
0
 10
4.39388
 20
20.5967
 30
0.0
 40
0
 41
0
  0
VERTEX
  8
0
 10
4.39367
 20
20.5786
 30
0.0
 40
0
 41
0
  0
VERTEX
  8
0
 10
4.37896
 20
20.5243
 30
0.0
 40
0
 41
0
  0
VERTEX
  8
0
 10
4.33475
 20
20.449
 30
0.0
 40
0
 41
0
  0
VERTEX
  8
0
 10
4.2596
 20
20.3626
 30
0.0
 40
0
 41
0
  0
VERTEX
  8
0
 10
4.17925
 20
20.2826
 30
0.0
 40
0
 41
0
  0
VERTEX
  8
0
 10
4.15192
 20
20.2565
 30
0.0
 40
0
 41
0
  0
VERTEX
  8
0
 10
4.0829
 20
20.1897
 30
0.0
 40
0
 41
0
  0
VERTEX
  8
0
 10
4.0829
 20
20.1357
 30
0.0
 40
0
 41
0
  0
VERTEX
  8
0
 10
4.49783
 20
20.1357
 30
0.0
 40
0
 41
0
  0
SEQEND
 8
0
  0
POLYLINE
  8
0
 62
     0
 66
     1
 10
0
 20
0
 30
0.0
 70
     1
 40
0
 41
0
  0
VERTEX
  8
0
 10
4.80593
 20
20.1246
 30
0.0
 40
0
 41
0
  0
VERTEX
  8
0
 10
4.81717
 20
20.1246
 30
0.0
 40
0
 41
0
  0
VERTEX
  8
0
 10
4.85097
 20
20.1282
 30
0.0
 40
0
 41
0
  0
VERTEX
  8
0
 10
4.89268
 20
20.1383
 30
0.0
 40
0
 41
0
  0
VERTEX
  8
0
 10
4.93028
 20
20.1546
 30
0.0
 40
0
 41
0
  0
VERTEX
  8
0
 10
4.96283
 20
20.1768
 30
0.0
 40
0
 41
0
  0
VERTEX
  8
0
 10
4.98958
 20
20.2042
 30
0.0
 40
0
 41
0
  0
VERTEX
  8
0
 10
5.00971
 20
20.2364
 30
0.0
 40
0
 41
0
  0
VERTEX
  8
0
 10
5.0224
 20
20.2731
 30
0.0
 40
0
 41
0
  0
VERTEX
  8
0
 10
5.02686
 20
20.3035
 30
0.0
 40
0
 41
0
  0
VERTEX
  8
0
 10
5.02686
 20
20.3136
 30
0.0
 40
0
 41
0
  0
VERTEX
  8
0
 10
5.02686
 20
20.3274
 30
0.0
 40
0
 41
0
  0
VERTEX
  8
0
 10
5.01774
 20
20.3688
 30
0.0
 40
0
 41
0
  0
VERTEX
  8
0
 10
4.99164
 20
20.4153
 30
0.0
 40
0
 41
0
  0
VERTEX
  8
0
 10
4.95036
 20
20.4531
 30
0.0
 40
0
 41
0
  0
VERTEX
  8
0
 10
4.91
 20
20.476
 30
0.0
 40
0
 41
0
  0
VERTEX
  8
0
 10
4.89578
 20
20.4817
 30
0.0
 40
0
 41
0
  0
VERTEX
  8
0
 10
4.89578
 20
20.4846
 30
0.0
 40
0
 41
0
  0
VERTEX
  8
0
 10
4.90918
 20
20.491
 30
0.0
 40
0
 41
0
  0
VERTEX
  8
0
 10
4.94624
 20
20.5167
 30
0.0
 40
0
 41
0
  0
VERTEX
  8
0
 10
4.97928
 20
20.5543
 30
0.0
 40
0
 41
0
  0
VERTEX
  8
0
 10
4.99729
 20
20.595
 30
0.0
 40
0
 41
0
  0
VERTEX
  8
0
 10
5.00276
 20
20.6262
 30
0.0
 40
0
 41
0
  0
VERTEX
  8
0
 10
5.00276
 20
20.6365
 30
0.0
 40
0
 41
0
  0
VERTEX
  8
0
 10
5.00276
 20
20.6514
 30
0.0
 40
0
 41
0
  0
VERTEX
  8
0
 10
4.99094
 20
20.6957
 30
0.0
 40
0
 41
0
  0
VERTEX
  8
0
 10
4.95557
 20
20.7469
 30
0.0
 40
0
 41
0
  0
VERTEX
  8
0
 10
4.89654
 20
20.7829
 30
0.0
 40
0
 41
0
  0
VERTEX
  8
0
 10
4.83458
 20
20.7965
 30
0.0
 40
0
 41
0
  0
VERTEX
  8
0
 10
4.81396
 20
20.7965
 30
0.0
 40
0
 41
0
  0
VERTEX
  8
0
 10
4.8036
 20
20.7965
 30
0.0
 40
0
 41
0
  0
VERTEX
  8
0
 10
4.77251
 20
20.7933
 30
0.0
 40
0
 41
0
  0
VERTEX
  8
0
 10
4.73438
 20
20.784
 30
0.0
 40
0
 41
0
  0
VERTEX
  8
0
 10
4.70019
 20
20.769
 30
0.0
 40
0
 41
0
  0
VERTEX
  8
0
 10
4.67068
 20
20.7488
 30
0.0
 40
0
 41
0
  0
VERTEX
  8
0
 10
4.64649
 20
20.7236
 30
0.0
 40
0
 41
0
  0
VERTEX
  8
0
 10
4.62831
 20
20.694
 30
0.0
 40
0
 41
0
  0
VERTEX
  8
0
 10
4.61692
 20
20.6606
 30
0.0
 40
0
 41
0
  0
VERTEX
  8
0
 10
4.61301
 20
20.6328
 30
0.0
 40
0
 41
0
  0
VERTEX
  8
0
 10
4.61301
 20
20.6235
 30
0.0
 40
0
 41
0
  0
VERTEX
  8
0
 10
4.61301
 20
20.6132
 30
0.0
 40
0
 41
0
  0
VERTEX
  8
0
 10
4.61893
 20
20.5819
 30
0.0
 40
0
 41
0
  0
VERTEX
  8
0
 10
4.63743
 20
20.5424
 30
0.0
 40
0
 41
0
  0
VERTEX
  8
0
 10
4.66938
 20
20.5069
 30
0.0
 40
0
 41
0
  0
VERTEX
  8
0
 10
4.7035
 20
20.4835
 30
0.0
 40
0
 41
0
  0
VERTEX
  8
0
 10
4.71588
 20
20.4776
 30
0.0
 40
0
 41
0
  0
VERTEX
  8
0
 10
4.71696
 20
20.4747
 30
0.0
 40
0
 41
0
  0
VERTEX
  8
0
 10
4.70281
 20
20.4688
 30
0.0
 40
0
 41
0
  0
VERTEX
  8
0
 10
4.66297
 20
20.4447
 30
0.0
 40
0
 41
0
  0
VERTEX
  8
0
 10
4.62235
 20
20.4057
 30
0.0
 40
0
 41
0
  0
VERTEX
  8
0
 10
4.59674
 20
20.3576
 30
0.0
 40
0
 41
0
  0
VERTEX
  8
0
 10
4.58783
 20
20.3149
 30
0.0
 40
0
 41
0
  0
VERTEX
  8
0
 10
4.58783
 20
20.3006
 30
0.0
 40
0
 41
0
  0
VERTEX
  8
0
 10
4.58783
 20
20.2919
 30
0.0
 40
0
 41
0
  0
VERTEX
  8
0
 10
4.59158
 20
20.2658
 30
0.0
 40
0
 41
0
  0
VERTEX
  8
0
 10
4.60275
 20
20.2331
 30
0.0
 40
0
 41
0
  0
VERTEX
  8
0
 10
4.62093
 20
20.2032
 30
0.0
 40
0
 41
0
  0
VERTEX
  8
0
 10
4.64583
 20
20.1769
 30
0.0
 40
0
 41
0
  0
VERTEX
  8
0
 10
4.67708
 20
20.1553
 30
0.0
 40
0
 41
0
  0
VERTEX
  8
0
 10
4.71442
 20
20.1388
 30
0.0
 40
0
 41
0
  0
VERTEX
  8
0
 10
4.75749
 20
20.1283
 30
0.0
 40
0
 41
0
  0
VERTEX
  8
0
 10
4.79378
 20
20.1246
 30
0.0
 40
0
 41
0
  0
VERTEX
  8
0
 10
4.80593
 20
20.1246
 30
0.0
 40
0
 41
0
  0
SEQEND
 8
0
  0
POLYLINE
  8
0
 62
     0
 66
     1
 10
0
 20
0
 30
0.0
 70
     1
 40
0
 41
0
  0
VERTEX
  8
0
 10
4.80789
 20
20.1886
 30
0.0
 40
0
 41
0
  0
VERTEX
  8
0
 10
4.79394
 20
20.1886
 30
0.0
 40
0
 41
0
  0
VERTEX
  8
0
 10
4.75217
 20
20.1988
 30
0.0
 40
0
 41
0
  0
VERTEX
  8
0
 10
4.71067
 20
20.2258
 30
0.0
 40
0
 41
0
  0
VERTEX
  8
0
 10
4.68522
 20
20.2654
 30
0.0
 40
0
 41
0
  0
VERTEX
  8
0
 10
4.67736
 20
20.3008
 30
0.0
 40
0
 41
0
  0
VERTEX
  8
0
 10
4.6779
 20
20.3125
 30
0.0
 40
0
 41
0
  0
VERTEX
  8
0
 10
4.6779
 20
20.3236
 30
0.0
 40
0
 41
0
  0
VERTEX
  8
0
 10
4.68549
 20
20.3567
 30
0.0
 40
0
 41
0
  0
VERTEX
  8
0
 10
4.7079
 20
20.3946
 30
0.0
 40
0
 41
0
  0
VERTEX
  8
0
 10
4.74451
 20
20.4251
 30
0.0
 40
0
 41
0
  0
VERTEX
  8
0
 10
4.78179
 20
20.4429
 30
0.0
 40
0
 41
0
  0
VERTEX
  8
0
 10
4.79486
 20
20.4467
 30
0.0
 40
0
 41
0
  0
VERTEX
  8
0
 10
4.81
 20
20.4424
 30
0.0
 40
0
 41
0
  0
VERTEX
  8
0
 10
4.85428
 20
20.4251
 30
0.0
 40
0
 41
0
  0
VERTEX
  8
0
 10
4.89931
 20
20.3958
 30
0.0
 40
0
 41
0
  0
VERTEX
  8
0
 10
4.92785
 20
20.3567
 30
0.0
 40
0
 41
0
  0
VERTEX
  8
0
 10
4.93788
 20
20.3178
 30
0.0
 40
0
 41
0
  0
VERTEX
  8
0
 10
4.93788
 20
20.3047
 30
0.0
 40
0
 41
0
  0
VERTEX
  8
0
 10
4.93788
 20
20.2932
 30
0.0
 40
0
 41
0
  0
VERTEX
  8
0
 10
4.92865
 20
20.2583
 30
0.0
 40
0
 41
0
  0
VERTEX
  8
0
 10
4.9025
 20
20.2215
 30
0.0
 40
0
 41
0
  0
VERTEX
  8
0
 10
4.86149
 20
20.1974
 30
0.0
 40
0
 41
0
  0
VERTEX
  8
0
 10
4.82129
 20
20.1886
 30
0.0
 40
0
 41
0
  0
VERTEX
  8
0
 10
4.80789
 20
20.1886
 30
0.0
 40
0
 41
0
  0
SEQEND
 8
0
  0
POLYLINE
  8
0
 62
     0
 66
     1
 10
0
 20
0
 30
0.0
 70
     1
 40
0
 41
0
  0
VERTEX
  8
0
 10
4.80897
 20
20.7336
 30
0.0
 40
0
 41
0
  0
VERTEX
  8
0
 10
4.82156
 20
20.7336
 30
0.0
 40
0
 41
0
  0
VERTEX
  8
0
 10
4.85932
 20
20.7243
 30
0.0
 40
0
 41
0
  0
VERTEX
  8
0
 10
4.89339
 20
20.7001
 30
0.0
 40
0
 41
0
  0
VERTEX
  8
0
 10
4.91265
 20
20.6661
 30
0.0
 40
0
 41
0
  0
VERTEX
  8
0
 10
4.91878
 20
20.6374
 30
0.0
 40
0
 41
0
  0
VERTEX
  8
0
 10
4.91878
 20
20.6276
 30
0.0
 40
0
 41
0
  0
VERTEX
  8
0
 10
4.91878
 20
20.6175
 30
0.0
 40
0
 41
0
  0
VERTEX
  8
0
 10
4.91118
 20
20.5869
 30
0.0
 40
0
 41
0
  0
VERTEX
  8
0
 10
4.89031
 20
20.5536
 30
0.0
 40
0
 41
0
  0
VERTEX
  8
0
 10
4.85889
 20
20.5278
 30
0.0
 40
0
 41
0
  0
VERTEX
  8
0
 10
4.82992
 20
20.5131
 30
0.0
 40
0
 41
0
  0
VERTEX
  8
0
 10
4.81982
 20
20.5096
 30
0.0
 40
0
 41
0
  0
VERTEX
  8
0
 10
4.80681
 20
20.5131
 30
0.0
 40
0
 41
0
  0
VERTEX
  8
0
 10
4.76882
 20
20.5276
 30
0.0
 40
0
 41
0
  0
VERTEX
  8
0
 10
4.72976
 20
20.5526
 30
0.0
 40
0
 41
0
  0
VERTEX
  8
0
 10
4.70469
 20
20.5862
 30
0.0
 40
0
 41
0
  0
VERTEX
  8
0
 10
4.6959
 20
20.6188
 30
0.0
 40
0
 41
0
  0
VERTEX
  8
0
 10
4.6959
 20
20.6296
 30
0.0
 40
0
 41
0
  0
VERTEX
  8
0
 10
4.6959
 20
20.6396
 30
0.0
 40
0
 41
0
  0
VERTEX
  8
0
 10
4.70329
 20
20.6694
 30
0.0
 40
0
 41
0
  0
VERTEX
  8
0
 10
4.72499
 20
20.7026
 30
0.0
 40
0
 41
0
  0
VERTEX
  8
0
 10
4.76042
 20
20.7251
 30
0.0
 40
0
 41
0
  0
VERTEX
  8
0
 10
4.79682
 20
20.7336
 30
0.0
 40
0
 41
0
  0
VERTEX
  8
0
 10
4.80897
 20
20.7336
 30
0.0
 40
0
 41
0
  0
SEQEND
 8
0
  0
POLYLINE
  8
0
 62
     0
 66
     1
 10
0
 20
0
 30
0.0
 70
     1
 40
0
 41
0
  0
VERTEX
  8
0
 10
5.29389
 20
20.6196
 30
0.0
 40
0
 41
0
  0
VERTEX
  8
0
 10
5.43994
 20
20.1357
 30
0.0
 40
0
 41
0
  0
VERTEX
  8
0
 10
5.51981
 20
20.1357
 30
0.0
 40
0
 41
0
  0
VERTEX
  8
0
 10
5.59771
 20
20.3657
 30
0.0
 40
0
 41
0
  0
VERTEX
  8
0
 10
5.602
 20
20.3788
 30
0.0
 40
0
 41
0
  0
VERTEX
  8
0
 10
5.62169
 20
20.4433
 30
0.0
 40
0
 41
0
  0
VERTEX
  8
0
 10
5.63878
 20
20.5111
 30
0.0
 40
0
 41
0
  0
VERTEX
  8
0
 10
5.64176
 20
20.5257
 30
0.0
 40
0
 41
0
  0
VERTEX
  8
0
 10
5.64372
 20
20.5257
 30
0.0
 40
0
 41
0
  0
VERTEX
  8
0
 10
5.64675
 20
20.5114
 30
0.0
 40
0
 41
0
  0
VERTEX
  8
0
 10
5.66342
 20
20.445
 30
0.0
 40
0
 41
0
  0
VERTEX
  8
0
 10
5.68246
 20
20.3801
 30
0.0
 40
0
 41
0
  0
VERTEX
  8
0
 10
5.68668
 20
20.3665
 30
0.0
 40
0
 41
0
  0
VERTEX
  8
0
 10
5.76069
 20
20.1357
 30
0.0
 40
0
 41
0
  0
VERTEX
  8
0
 10
5.84076
 20
20.1357
 30
0.0
 40
0
 41
0
  0
VERTEX
  8
0
 10
5.99681
 20
20.6196
 30
0.0
 40
0
 41
0
  0
VERTEX
  8
0
 10
5.90978
 20
20.6196
 30
0.0
 40
0
 41
0
  0
VERTEX
  8
0
 10
5.84076
 20
20.3765
 30
0.0
 40
0
 41
0
  0
VERTEX
  8
0
 10
5.83675
 20
20.3624
 30
0.0
 40
0
 41
0
  0
VERTEX
  8
0
 10
5.81917
 20
20.2951
 30
0.0
 40
0
 41
0
  0
VERTEX
  8
0
 10
5.80567
 20
20.2319
 30
0.0
 40
0
 41
0
  0
VERTEX
  8
0
 10
5.80365
 20
20.2197
 30
0.0
 40
0
 41
0
  0
VERTEX
  8
0
 10
5.80083
 20
20.2197
 30
0.0
 40
0
 41
0
  0
VERTEX
  8
0
 10
5.79807
 20
20.2319
 30
0.0
 40
0
 41
0
  0
VERTEX
  8
0
 10
5.78185
 20
20.2954
 30
0.0
 40
0
 41
0
  0
VERTEX
  8
0
 10
5.76215
 20
20.3632
 30
0.0
 40
0
 41
0
  0
VERTEX
  8
0
 10
5.75765
 20
20.3776
 30
0.0
 40
0
 41
0
  0
VERTEX
  8
0
 10
5.68278
 20
20.6196
 30
0.0
 40
0
 41
0
  0
VERTEX
  8
0
 10
5.60878
 20
20.6196
 30
0.0
 40
0
 41
0
  0
VERTEX
  8
0
 10
5.52979
 20
20.3726
 30
0.0
 40
0
 41
0
  0
VERTEX
  8
0
 10
5.52576
 20
20.3596
 30
0.0
 40
0
 41
0
  0
VERTEX
  8
0
 10
5.48958
 20
20.2319
 30
0.0
 40
0
 41
0
  0
VERTEX
  8
0
 10
5.48682
 20
20.2197
 30
0.0
 40
0
 41
0
  0
VERTEX
  8
0
 10
5.48378
 20
20.2197
 30
0.0
 40
0
 41
0
  0
VERTEX
  8
0
 10
5.48156
 20
20.2321
 30
0.0
 40
0
 41
0
  0
VERTEX
  8
0
 10
5.45128
 20
20.3601
 30
0.0
 40
0
 41
0
  0
VERTEX
  8
0
 10
5.44775
 20
20.3735
 30
0.0
 40
0
 41
0
  0
VERTEX
  8
0
 10
5.38396
 20
20.6196
 30
0.0
 40
0
 41
0
  0
VERTEX
  8
0
 10
5.29389
 20
20.6196
 30
0.0
 40
0
 41
0
  0
SEQEND
 8
0
  0
POLYLINE
  8
0
 62
     0
 66
     1
 10
0
 20
0
 30
0.0
 70
     1
 40
0
 41
0
  0
VERTEX
  8
0
 10
6.17285
 20
20.1357
 30
0.0
 40
0
 41
0
  0
VERTEX
  8
0
 10
6.17285
 20
20.6196
 30
0.0
 40
0
 41
0
  0
VERTEX
  8
0
 10
6.08475
 20
20.6196
 30
0.0
 40
0
 41
0
  0
VERTEX
  8
0
 10
6.08475
 20
20.1357
 30
0.0
 40
0
 41
0
  0
VERTEX
  8
0
 10
6.17285
 20
20.1357
 30
0.0
 40
0
 41
0
  0
SEQEND
 8
0
  0
POLYLINE
  8
0
 62
     0
 66
     1
 10
0
 20
0
 30
0.0
 70
     1
 40
0
 41
0
  0
VERTEX
  8
0
 10
6.12879
 20
20.8106
 30
0.0
 40
0
 41
0
  0
VERTEX
  8
0
 10
6.12326
 20
20.8106
 30
0.0
 40
0
 41
0
  0
VERTEX
  8
0
 10
6.10672
 20
20.8064
 30
0.0
 40
0
 41
0
  0
VERTEX
  8
0
 10
6.08936
 20
20.7947
 30
0.0
 40
0
 41
0
  0
VERTEX
  8
0
 10
6.07796
 20
20.7772
 30
0.0
 40
0
 41
0
  0
VERTEX
  8
0
 10
6.07389
 20
20.761
 30
0.0
 40
0
 41
0
  0
VERTEX
  8
0
 10
6.07389
 20
20.7554
 30
0.0
 40
0
 41
0
  0
VERTEX
  8
0
 10
6.07389
 20
20.7503
 30
0.0
 40
0
 41
0
  0
VERTEX
  8
0
 10
6.07781
 20
20.7344
 30
0.0
 40
0
 41
0
  0
VERTEX
  8
0
 10
6.08871
 20
20.7172
 30
0.0
 40
0
 41
0
  0
VERTEX
  8
0
 10
6.10547
 20
20.7057
 30
0.0
 40
0
 41
0
  0
VERTEX
  8
0
 10
6.12147
 20
20.7014
 30
0.0
 40
0
 41
0
  0
VERTEX
  8
0
 10
6.12685
 20
20.7014
 30
0.0
 40
0
 41
0
  0
VERTEX
  8
0
 10
6.13271
 20
20.7014
 30
0.0
 40
0
 41
0
  0
VERTEX
  8
0
 10
6.15044
 20
20.7057
 30
0.0
 40
0
 41
0
  0
VERTEX
  8
0
 10
6.16824
 20
20.7172
 30
0.0
 40
0
 41
0
  0
VERTEX
  8
0
 10
6.17936
 20
20.7344
 30
0.0
 40
0
 41
0
  0
VERTEX
  8
0
 10
6.18294
 20
20.7503
 30
0.0
 40
0
 41
0
  0
VERTEX
  8
0
 10
6.18283
 20
20.7554
 30
0.0
 40
0
 41
0
  0
VERTEX
  8
0
 10
6.18283
 20
20.761
 30
0.0
 40
0
 41
0
  0
VERTEX
  8
0
 10
6.17899
 20
20.7772
 30
0.0
 40
0
 41
0
  0
VERTEX
  8
0
 10
6.16818
 20
20.7947
 30
0.0
 40
0
 41
0
  0
VERTEX
  8
0
 10
6.15115
 20
20.8064
 30
0.0
 40
0
 41
0
  0
VERTEX
  8
0
 10
6.13439
 20
20.8106
 30
0.0
 40
0
 41
0
  0
VERTEX
  8
0
 10
6.12879
 20
20.8106
 30
0.0
 40
0
 41
0
  0
SEQEND
 8
0
  0
POLYLINE
  8
0
 62
     0
 66
     1
 10
0
 20
0
 30
0.0
 70
     1
 40
0
 41
0
  0
VERTEX
  8
0
 10
6.33871
 20
20.7356
 30
0.0
 40
0
 41
0
  0
VERTEX
  8
0
 10
6.33871
 20
20.6196
 30
0.0
 40
0
 41
0
  0
VERTEX
  8
0
 10
6.26383
 20
20.6196
 30
0.0
 40
0
 41
0
  0
VERTEX
  8
0
 10
6.26383
 20
20.5526
 30
0.0
 40
0
 41
0
  0
VERTEX
  8
0
 10
6.33871
 20
20.5526
 30
0.0
 40
0
 41
0
  0
VERTEX
  8
0
 10
6.33871
 20
20.2888
 30
0.0
 40
0
 41
0
  0
VERTEX
  8
0
 10
6.33871
 20
20.27
 30
0.0
 40
0
 41
0
  0
VERTEX
  8
0
 10
6.34636
 20
20.214
 30
0.0
 40
0
 41
0
  0
VERTEX
  8
0
 10
6.36654
 20
20.1692
 30
0.0
 40
0
 41
0
  0
VERTEX
  8
0
 10
6.37278
 20
20.1626
 30
0.0
 40
0
 41
0
  0
VERTEX
  8
0
 10
6.37804
 20
20.1567
 30
0.0
 40
0
 41
0
  0
VERTEX
  8
0
 10
6.41282
 20
20.1351
 30
0.0
 40
0
 41
0
  0
VERTEX
  8
0
 10
6.45404
 20
20.1257
 30
0.0
 40
0
 41
0
  0
VERTEX
  8
0
 10
6.46783
 20
20.1257
 30
0.0
 40
0
 41
0
  0
VERTEX
  8
0
 10
6.47911
 20
20.1257
 30
0.0
 40
0
 41
0
  0
VERTEX
  8
0
 10
6.51313
 20
20.129
 30
0.0
 40
0
 41
0
  0
VERTEX
  8
0
 10
6.5415
 20
20.136
 30
0.0
 40
0
 41
0
  0
VERTEX
  8
0
 10
6.54574
 20
20.1376
 30
0.0
 40
0
 41
0
  0
VERTEX
  8
0
 10
6.54183
 20
20.2036
 30
0.0
 40
0
 41
0
  0
VERTEX
  8
0
 10
6.53907
 20
20.2029
 30
0.0
 40
0
 41
0
  0
VERTEX
  8
0
 10
6.50288
 20
20.1978
 30
0.0
 40
0
 41
0
  0
VERTEX
  8
0
 10
6.49083
 20
20.1978
 30
0.0
 40
0
 41
0
  0
VERTEX
  8
0
 10
6.48307
 20
20.1978
 30
0.0
 40
0
 41
0
  0
VERTEX
  8
0
 10
6.45979
 20
20.204
 30
0.0
 40
0
 41
0
  0
VERTEX
  8
0
 10
6.43946
 20
20.2222
 30
0.0
 40
0
 41
0
  0
VERTEX
  8
0
 10
6.42822
 20
20.2517
 30
0.0
 40
0
 41
0
  0
VERTEX
  8
0
 10
6.42486
 20
20.2818
 30
0.0
 40
0
 41
0
  0
VERTEX
  8
0
 10
6.42486
 20
20.2917
 30
0.0
 40
0
 41
0
  0
VERTEX
  8
0
 10
6.42486
 20
20.5526
 30
0.0
 40
0
 41
0
  0
VERTEX
  8
0
 10
6.55072
 20
20.5526
 30
0.0
 40
0
 41
0
  0
VERTEX
  8
0
 10
6.55072
 20
20.6196
 30
0.0
 40
0
 41
0
  0
VERTEX
  8
0
 10
6.42486
 20
20.6196
 30
0.0
 40
0
 41
0
  0
VERTEX
  8
0
 10
6.42486
 20
20.7585
 30
0.0
 40
0
 41
0
  0
VERTEX
  8
0
 10
6.33871
 20
20.7356
 30
0.0
 40
0
 41
0
  0
SEQEND
 8
0
  0
POLYLINE
  8
0
 62
     0
 66
     1
 10
0
 20
0
 30
0.0
 70
     1
 40
0
 41
0
  0
VERTEX
  8
0
 10
6.64968
 20
20.1357
 30
0.0
 40
0
 41
0
  0
VERTEX
  8
0
 10
6.73779
 20
20.1357
 30
0.0
 40
0
 41
0
  0
VERTEX
  8
0
 10
6.73779
 20
20.4276
 30
0.0
 40
0
 41
0
  0
VERTEX
  8
0
 10
6.73779
 20
20.4381
 30
0.0
 40
0
 41
0
  0
VERTEX
  8
0
 10
6.7424
 20
20.4667
 30
0.0
 40
0
 41
0
  0
VERTEX
  8
0
 10
6.74365
 20
20.4697
 30
0.0
 40
0
 41
0
  0
VERTEX
  8
0
 10
6.74664
 20
20.4786
 30
0.0
 40
0
 41
0
  0
VERTEX
  8
0
 10
6.76079
 20
20.5038
 30
0.0
 40
0
 41
0
  0
VERTEX
  8
0
 10
6.78728
 20
20.5317
 30
0.0
 40
0
 41
0
  0
VERTEX
  8
0
 10
6.8214
 20
20.5506
 30
0.0
 40
0
 41
0
  0
VERTEX
  8
0
 10
6.85161
 20
20.5575
 30
0.0
 40
0
 41
0
  0
VERTEX
  8
0
 10
6.86171
 20
20.5575
 30
0.0
 40
0
 41
0
  0
VERTEX
  8
0
 10
6.87478
 20
20.5575
 30
0.0
 40
0
 41
0
  0
VERTEX
  8
0
 10
6.91417
 20
20.5461
 30
0.0
 40
0
 41
0
  0
VERTEX
  8
0
 10
6.94879
 20
20.5149
 30
0.0
 40
0
 41
0
  0
VERTEX
  8
0
 10
6.96783
 20
20.469
 30
0.0
 40
0
 41
0
  0
VERTEX
  8
0
 10
6.97368
 20
20.4276
 30
0.0
 40
0
 41
0
  0
VERTEX
  8
0
 10
6.97368
 20
20.4138
 30
0.0
 40
0
 41
0
  0
VERTEX
  8
0
 10
6.97368
 20
20.1357
 30
0.0
 40
0
 41
0
  0
VERTEX
  8
0
 10
7.06158
 20
20.1357
 30
0.0
 40
0
 41
0
  0
VERTEX
  8
0
 10
7.06158
 20
20.4236
 30
0.0
 40
0
 41
0
  0
VERTEX
  8
0
 10
7.06158
 20
20.4379
 30
0.0
 40
0
 41
0
  0
VERTEX
  8
0
 10
7.05697
 20
20.4804
 30
0.0
 40
0
 41
0
  0
VERTEX
  8
0
 10
7.04428
 20
20.5264
 30
0.0
 40
0
 41
0
  0
VERTEX
  8
0
 10
7.02522
 20
20.5625
 30
0.0
 40
0
 41
0
  0
VERTEX
  8
0
 10
7.00146
 20
20.5897
 30
0.0
 40
0
 41
0
  0
VERTEX
  8
0
 10
6.97467
 20
20.609
 30
0.0
 40
0
 41
0
  0
VERTEX
  8
0
 10
6.94646
 20
20.6217
 30
0.0
 40
0
 41
0
  0
VERTEX
  8
0
 10
6.91862
 20
20.6285
 30
0.0
 40
0
 41
0
  0
VERTEX
  8
0
 10
6.89919
 20
20.6304
 30
0.0
 40
0
 41
0
  0
VERTEX
  8
0
 10
6.89274
 20
20.6304
 30
0.0
 40
0
 41
0
  0
VERTEX
  8
0
 10
6.88081
 20
20.6304
 30
0.0
 40
0
 41
0
  0
VERTEX
  8
0
 10
6.84511
 20
20.6236
 30
0.0
 40
0
 41
0
  0
VERTEX
  8
0
 10
6.80919
 20
20.6093
 30
0.0
 40
0
 41
0
  0
VERTEX
  8
0
 10
6.80268
 20
20.6056
 30
0.0
 40
0
 41
0
  0
VERTEX
  8
0
 10
6.79596
 20
20.6018
 30
0.0
 40
0
 41
0
  0
VERTEX
  8
0
 10
6.76633
 20
20.5783
 30
0.0
 40
0
 41
0
  0
VERTEX
  8
0
 10
6.74322
 20
20.5499
 30
0.0
 40
0
 41
0
  0
VERTEX
  8
0
 10
6.73975
 20
20.5436
 30
0.0
 40
0
 41
0
  0
VERTEX
  8
0
 10
6.73779
 20
20.5436
 30
0.0
 40
0
 41
0
  0
VERTEX
  8
0
 10
6.73779
 20
20.8456
 30
0.0
 40
0
 41
0
  0
VERTEX
  8
0
 10
6.64968
 20
20.8456
 30
0.0
 40
0
 41
0
  0
VERTEX
  8
0
 10
6.64968
 20
20.1357
 30
0.0
 40
0
 41
0
  0
SEQEND
 8
0
  0
POLYLINE
  8
0
 62
     0
 66
     1
 10
0
 20
0
 30
0.0
 70
     1
 40
0
 41
0
  0
VERTEX
  8
0
 10
7.57958
 20
20.1357
 30
0.0
 40
0
 41
0
  0
VERTEX
  8
0
 10
7.66465
 20
20.1357
 30
0.0
 40
0
 41
0
  0
VERTEX
  8
0
 10
7.66465
 20
20.7854
 30
0.0
 40
0
 41
0
  0
VERTEX
  8
0
 10
7.58957
 20
20.7854
 30
0.0
 40
0
 41
0
  0
VERTEX
  8
0
 10
7.44764
 20
20.7094
 30
0.0
 40
0
 41
0
  0
VERTEX
  8
0
 10
7.46457
 20
20.6426
 30
0.0
 40
0
 41
0
  0
VERTEX
  8
0
 10
7.57764
 20
20.7036
 30
0.0
 40
0
 41
0
  0
VERTEX
  8
0
 10
7.57958
 20
20.7036
 30
0.0
 40
0
 41
0
  0
VERTEX
  8
0
 10
7.57958
 20
20.1357
 30
0.0
 40
0
 41
0
  0
SEQEND
 8
0
  0
POLYLINE
  8
0
 62
     0
 66
     1
 10
0
 20
0
 30
0.0
 70
     1
 40
0
 41
0
  0
VERTEX
  8
0
 10
7.92264
 20
20.0957
 30
0.0
 40
0
 41
0
  0
VERTEX
  8
0
 10
8.20258
 20
20.8206
 30
0.0
 40
0
 41
0
  0
VERTEX
  8
0
 10
8.13465
 20
20.8206
 30
0.0
 40
0
 41
0
  0
VERTEX
  8
0
 10
7.85558
 20
20.0957
 30
0.0
 40
0
 41
0
  0
VERTEX
  8
0
 10
7.92264
 20
20.0957
 30
0.0
 40
0
 41
0
  0
SEQEND
 8
0
  0
POLYLINE
  8
0
 62
     0
 66
     1
 10
0
 20
0
 30
0.0
 70
     1
 40
0
 41
0
  0
VERTEX
  8
0
 10
8.59961
 20
20.1357
 30
0.0
 40
0
 41
0
  0
VERTEX
  8
0
 10
8.59961
 20
20.3125
 30
0.0
 40
0
 41
0
  0
VERTEX
  8
0
 10
8.69054
 20
20.3125
 30
0.0
 40
0
 41
0
  0
VERTEX
  8
0
 10
8.69054
 20
20.3815
 30
0.0
 40
0
 41
0
  0
VERTEX
  8
0
 10
8.59961
 20
20.3815
 30
0.0
 40
0
 41
0
  0
VERTEX
  8
0
 10
8.59961
 20
20.7854
 30
0.0
 40
0
 41
0
  0
VERTEX
  8
0
 10
8.50456
 20
20.7854
 30
0.0
 40
0
 41
0
  0
VERTEX
  8
0
 10
8.21463
 20
20.3707
 30
0.0
 40
0
 41
0
  0
VERTEX
  8
0
 10
8.21463
 20
20.3125
 30
0.0
 40
0
 41
0
  0
VERTEX
  8
0
 10
8.5165
 20
20.3125
 30
0.0
 40
0
 41
0
  0
VERTEX
  8
0
 10
8.5165
 20
20.1357
 30
0.0
 40
0
 41
0
  0
VERTEX
  8
0
 10
8.59961
 20
20.1357
 30
0.0
 40
0
 41
0
  0
SEQEND
 8
0
  0
POLYLINE
  8
0
 62
     0
 66
     1
 10
0
 20
0
 30
0.0
 70
     1
 40
0
 41
0
  0
VERTEX
  8
0
 10
8.3036
 20
20.3815
 30
0.0
 40
0
 41
0
  0
VERTEX
  8
0
 10
8.3036
 20
20.3835
 30
0.0
 40
0
 41
0
  0
VERTEX
  8
0
 10
8.46268
 20
20.6047
 30
0.0
 40
0
 41
0
  0
VERTEX
  8
0
 10
8.46718
 20
20.6121
 30
0.0
 40
0
 41
0
  0
VERTEX
  8
0
 10
8.48882
 20
20.6496
 30
0.0
 40
0
 41
0
  0
VERTEX
  8
0
 10
8.5115
 20
20.6911
 30
0.0
 40
0
 41
0
  0
VERTEX
  8
0
 10
8.5165
 20
20.7006
 30
0.0
 40
0
 41
0
  0
VERTEX
  8
0
 10
8.51953
 20
20.7006
 30
0.0
 40
0
 41
0
  0
VERTEX
  8
0
 10
8.51904
 20
20.6921
 30
0.0
 40
0
 41
0
  0
VERTEX
  8
0
 10
8.5165
 20
20.6219
 30
0.0
 40
0
 41
0
  0
VERTEX
  8
0
 10
8.5165
 20
20.5986
 30
0.0
 40
0
 41
0
  0
VERTEX
  8
0
 10
8.5165
 20
20.3815
 30
0.0
 40
0
 41
0
  0
VERTEX
  8
0
 10
8.3036
 20
20.3815
 30
0.0
 40
0
 41
0
  0
SEQEND
 8
0
  0
POLYLINE
  8
0
 62
     0
 66
     1
 10
0
 20
0
 30
0.0
 70
     1
 40
0
 41
0
  0
VERTEX
  8
0
 10
8.8055
 20
20.8115
 30
0.0
 40
0
 41
0
  0
VERTEX
  8
0
 10
8.80279
 20
20.7935
 30
0.0
 40
0
 41
0
  0
VERTEX
  8
0
 10
8.77983
 20
20.6892
 30
0.0
 40
0
 41
0
  0
VERTEX
  8
0
 10
8.7519
 20
20.5914
 30
0.0
 40
0
 41
0
  0
VERTEX
  8
0
 10
8.74669
 20
20.5767
 30
0.0
 40
0
 41
0
  0
VERTEX
  8
0
 10
8.80268
 20
20.5836
 30
0.0
 40
0
 41
0
  0
VERTEX
  8
0
 10
8.80897
 20
20.5944
 30
0.0
 40
0
 41
0
  0
VERTEX
  8
0
 10
8.82531
 20
20.6282
 30
0.0
 40
0
 41
0
  0
VERTEX
  8
0
 10
8.85058
 20
20.6879
 30
0.0
 40
0
 41
0
  0
VERTEX
  8
0
 10
8.87511
 20
20.7546
 30
0.0
 40
0
 41
0
  0
VERTEX
  8
0
 10
8.891
 20
20.804
 30
0.0
 40
0
 41
0
  0
VERTEX
  8
0
 10
8.89556
 20
20.8206
 30
0.0
 40
0
 41
0
  0
VERTEX
  8
0
 10
8.8055
 20
20.8115
 30
0.0
 40
0
 41
0
  0
SEQEND
 8
0
  0
POLYLINE
  8
0
 62
     0
 66
     1
 10
0
 20
0
 30
0.0
 70
     1
 40
0
 41
0
  0
VERTEX
  8
0
 10
8.9535
 20
20.8115
 30
0.0
 40
0
 41
0
  0
VERTEX
  8
0
 10
8.95079
 20
20.7935
 30
0.0
 40
0
 41
0
  0
VERTEX
  8
0
 10
8.92822
 20
20.6892
 30
0.0
 40
0
 41
0
  0
VERTEX
  8
0
 10
8.90001
 20
20.5914
 30
0.0
 40
0
 41
0
  0
VERTEX
  8
0
 10
8.89447
 20
20.5767
 30
0.0
 40
0
 41
0
  0
VERTEX
  8
0
 10
8.95047
 20
20.5836
 30
0.0
 40
0
 41
0
  0
VERTEX
  8
0
 10
8.95682
 20
20.5944
 30
0.0
 40
0
 41
0
  0
VERTEX
  8
0
 10
8.97319
 20
20.6282
 30
0.0
 40
0
 41
0
  0
VERTEX
  8
0
 10
8.99854
 20
20.6879
 30
0.0
 40
0
 41
0
  0
VERTEX
  8
0
 10
9.02311
 20
20.7546
 30
0.0
 40
0
 41
0
  0
VERTEX
  8
0
 10
9.03901
 20
20.804
 30
0.0
 40
0
 41
0
  0
VERTEX
  8
0
 10
9.04357
 20
20.8206
 30
0.0
 40
0
 41
0
  0
VERTEX
  8
0
 10
8.9535
 20
20.8115
 30
0.0
 40
0
 41
0
  0
SEQEND
 8
0
  0
POLYLINE
  8
0
 62
     0
 66
     1
 10
0
 20
0
 30
0.0
 70
     1
 40
0
 41
0
  0
VERTEX
  8
0
 10
9.2685
 20
20.1357
 30
0.0
 40
0
 41
0
  0
VERTEX
  8
0
 10
9.35553
 20
20.1357
 30
0.0
 40
0
 41
0
  0
VERTEX
  8
0
 10
9.35553
 20
20.4057
 30
0.0
 40
0
 41
0
  0
VERTEX
  8
0
 10
9.36051
 20
20.4044
 30
0.0
 40
0
 41
0
  0
VERTEX
  8
0
 10
9.40918
 20
20.3996
 30
0.0
 40
0
 41
0
  0
VERTEX
  8
0
 10
9.4254
 20
20.3996
 30
0.0
 40
0
 41
0
  0
VERTEX
  8
0
 10
9.44075
 20
20.3996
 30
0.0
 40
0
 41
0
  0
VERTEX
  8
0
 10
9.48699
 20
20.4043
 30
0.0
 40
0
 41
0
  0
VERTEX
  8
0
 10
9.54303
 20
20.4182
 30
0.0
 40
0
 41
0
  0
VERTEX
  8
0
 10
9.59169
 20
20.4414
 30
0.0
 40
0
 41
0
  0
VERTEX
  8
0
 10
9.62267
 20
20.4643
 30
0.0
 40
0
 41
0
  0
VERTEX
  8
0
 10
9.63135
 20
20.4736
 30
0.0
 40
0
 41
0
  0
VERTEX
  8
0
 10
9.63986
 20
20.4824
 30
0.0
 40
0
 41
0
  0
VERTEX
  8
0
 10
9.67014
 20
20.5357
 30
0.0
 40
0
 41
0
  0
VERTEX
  8
0
 10
9.68343
 20
20.5971
 30
0.0
 40
0
 41
0
  0
VERTEX
  8
0
 10
9.68343
 20
20.6175
 30
0.0
 40
0
 41
0
  0
VERTEX
  8
0
 10
9.68343
 20
20.6282
 30
0.0
 40
0
 41
0
  0
VERTEX
  8
0
 10
9.67942
 20
20.6604
 30
0.0
 40
0
 41
0
  0
VERTEX
  8
0
 10
9.66781
 20
20.6986
 30
0.0
 40
0
 41
0
  0
VERTEX
  8
0
 10
9.64925
 20
20.7315
 30
0.0
 40
0
 41
0
  0
VERTEX
  8
0
 10
9.63129
 20
20.7526
 30
0.0
 40
0
 41
0
  0
VERTEX
  8
0
 10
9.6244
 20
20.7585
 30
0.0
 40
0
 41
0
  0
VERTEX
  8
0
 10
9.61669
 20
20.7654
 30
0.0
 40
0
 41
0
  0
VERTEX
  8
0
 10
9.59011
 20
20.7825
 30
0.0
 40
0
 41
0
  0
VERTEX
  8
0
 10
9.54719
 20
20.8
 30
0.0
 40
0
 41
0
  0
VERTEX
  8
0
 10
9.49561
 20
20.8108
 30
0.0
 40
0
 41
0
  0
VERTEX
  8
0
 10
9.45042
 20
20.8144
 30
0.0
 40
0
 41
0
  0
VERTEX
  8
0
 10
9.43539
 20
20.8144
 30
0.0
 40
0
 41
0
  0
VERTEX
  8
0
 10
9.41189
 20
20.8144
 30
0.0
 40
0
 41
0
  0
VERTEX
  8
0
 10
9.34153
 20
20.8106
 30
0.0
 40
0
 41
0
  0
VERTEX
  8
0
 10
9.27903
 20
20.8032
 30
0.0
 40
0
 41
0
  0
VERTEX
  8
0
 10
9.2685
 20
20.8015
 30
0.0
 40
0
 41
0
  0
VERTEX
  8
0
 10
9.2685
 20
20.1357
 30
0.0
 40
0
 41
0
  0
SEQEND
 8
0
  0
POLYLINE
  8
0
 62
     0
 66
     1
 10
0
 20
0
 30
0.0
 70
     1
 40
0
 41
0
  0
VERTEX
  8
0
 10
9.35553
 20
20.7386
 30
0.0
 40
0
 41
0
  0
VERTEX
  8
0
 10
9.35926
 20
20.7396
 30
0.0
 40
0
 41
0
  0
VERTEX
  8
0
 10
9.38792
 20
20.7435
 30
0.0
 40
0
 41
0
  0
VERTEX
  8
0
 10
9.42513
 20
20.7456
 30
0.0
 40
0
 41
0
  0
VERTEX
  8
0
 10
9.43756
 20
20.7456
 30
0.0
 40
0
 41
0
  0
VERTEX
  8
0
 10
9.45383
 20
20.7456
 30
0.0
 40
0
 41
0
  0
VERTEX
  8
0
 10
9.50282
 20
20.7374
 30
0.0
 40
0
 41
0
  0
VERTEX
  8
0
 10
9.55296
 20
20.7129
 30
0.0
 40
0
 41
0
  0
VERTEX
  8
0
 10
9.58507
 20
20.6717
 30
0.0
 40
0
 41
0
  0
VERTEX
  8
0
 10
9.5964
 20
20.6281
 30
0.0
 40
0
 41
0
  0
VERTEX
  8
0
 10
9.5964
 20
20.6136
 30
0.0
 40
0
 41
0
  0
VERTEX
  8
0
 10
9.5964
 20
20.5982
 30
0.0
 40
0
 41
0
  0
VERTEX
  8
0
 10
9.58475
 20
20.5519
 30
0.0
 40
0
 41
0
  0
VERTEX
  8
0
 10
9.55126
 20
20.5068
 30
0.0
 40
0
 41
0
  0
VERTEX
  8
0
 10
9.49815
 20
20.4792
 30
0.0
 40
0
 41
0
  0
VERTEX
  8
0
 10
9.44521
 20
20.4697
 30
0.0
 40
0
 41
0
  0
VERTEX
  8
0
 10
9.42757
 20
20.4697
 30
0.0
 40
0
 41
0
  0
VERTEX
  8
0
 10
9.40956
 20
20.4697
 30
0.0
 40
0
 41
0
  0
VERTEX
  8
0
 10
9.36025
 20
20.4754
 30
0.0
 40
0
 41
0
  0
VERTEX
  8
0
 10
9.35553
 20
20.4767
 30
0.0
 40
0
 41
0
  0
VERTEX
  8
0
 10
9.35553
 20
20.7386
 30
0.0
 40
0
 41
0
  0
SEQEND
 8
0
  0
POLYLINE
  8
0
 62
     0
 66
     1
 10
0
 20
0
 30
0.0
 70
     1
 40
0
 41
0
  0
VERTEX
  8
0
 10
9.97749
 20
20.6304
 30
0.0
 40
0
 41
0
  0
VERTEX
  8
0
 10
9.95394
 20
20.6304
 30
0.0
 40
0
 41
0
  0
VERTEX
  8
0
 10
9.88336
 20
20.6132
 30
0.0
 40
0
 41
0
  0
VERTEX
  8
0
 10
9.80718
 20
20.5628
 30
0.0
 40
0
 41
0
  0
VERTEX
  8
0
 10
9.75608
 20
20.4821
 30
0.0
 40
0
 41
0
  0
VERTEX
  8
0
 10
9.73747
 20
20.4007
 30
0.0
 40
0
 41
0
  0
VERTEX
  8
0
 10
9.73747
 20
20.3735
 30
0.0
 40
0
 41
0
  0
VERTEX
  8
0
 10
9.73747
 20
20.3478
 30
0.0
 40
0
 41
0
  0
VERTEX
  8
0
 10
9.75526
 20
20.2703
 30
0.0
 40
0
 41
0
  0
VERTEX
  8
0
 10
9.80431
 20
20.1918
 30
0.0
 40
0
 41
0
  0
VERTEX
  8
0
 10
9.87787
 20
20.1421
 30
0.0
 40
0
 41
0
  0
VERTEX
  8
0
 10
9.94656
 20
20.1246
 30
0.0
 40
0
 41
0
  0
VERTEX
  8
0
 10
9.96946
 20
20.1246
 30
0.0
 40
0
 41
0
  0
VERTEX
  8
0
 10
9.99115
 20
20.1246
 30
0.0
 40
0
 41
0
  0
VERTEX
  8
0
 10
10.0564
 20
20.1396
 30
0.0
 40
0
 41
0
  0
VERTEX
  8
0
 10
10.1337
 20
20.186
 30
0.0
 40
0
 41
0
  0
VERTEX
  8
0
 10
10.1891
 20
20.266
 30
0.0
 40
0
 41
0
  0
VERTEX
  8
0
 10
10.2103
 20
20.3526
 30
0.0
 40
0
 41
0
  0
VERTEX
  8
0
 10
10.2103
 20
20.3815
 30
0.0
 40
0
 41
0
  0
VERTEX
  8
0
 10
10.2103
 20
20.4069
 30
0.0
 40
0
 41
0
  0
VERTEX
  8
0
 10
10.1935
 20
20.4829
 30
0.0
 40
0
 41
0
  0
VERTEX
  8
0
 10
10.146
 20
20.5615
 30
0.0
 40
0
 41
0
  0
VERTEX
  8
0
 10
10.0724
 20
20.6124
 30
0.0
 40
0
 41
0
  0
VERTEX
  8
0
 10
10.0012
 20
20.6304
 30
0.0
 40
0
 41
0
  0
VERTEX
  8
0
 10
9.97749
 20
20.6304
 30
0.0
 40
0
 41
0
  0
SEQEND
 8
0
  0
POLYLINE
  8
0
 62
     0
 66
     1
 10
0
 20
0
 30
0.0
 70
     1
 40
0
 41
0
  0
VERTEX
  8
0
 10
9.97532
 20
20.5644
 30
0.0
 40
0
 41
0
  0
VERTEX
  8
0
 10
9.98432
 20
20.5644
 30
0.0
 40
0
 41
0
  0
VERTEX
  8
0
 10
10.0114
 20
20.5599
 30
0.0
 40
0
 41
0
  0
VERTEX
  8
0
 10
10.0419
 20
20.5469
 30
0.0
 40
0
 41
0
  0
VERTEX
  8
0
 10
10.0669
 20
20.5274
 30
0.0
 40
0
 41
0
  0
VERTEX
  8
0
 10
10.0869
 20
20.5022
 30
0.0
 40
0
 41
0
  0
VERTEX
  8
0
 10
10.1018
 20
20.4735
 30
0.0
 40
0
 41
0
  0
VERTEX
  8
0
 10
10.1122
 20
20.4422
 30
0.0
 40
0
 41
0
  0
VERTEX
  8
0
 10
10.1183
 20
20.4101
 30
0.0
 40
0
 41
0
  0
VERTEX
  8
0
 10
10.1203
 20
20.3864
 30
0.0
 40
0
 41
0
  0
VERTEX
  8
0
 10
10.1203
 20
20.3785
 30
0.0
 40
0
 41
0
  0
VERTEX
  8
0
 10
10.1203
 20
20.3597
 30
0.0
 40
0
 41
0
  0
VERTEX
  8
0
 10
10.1091
 20
20.3032
 30
0.0
 40
0
 41
0
  0
VERTEX
  8
0
 10
10.0783
 20
20.2438
 30
0.0
 40
0
 41
0
  0
VERTEX
  8
0
 10
10.0317
 20
20.2046
 30
0.0
 40
0
 41
0
  0
VERTEX
  8
0
 10
9.98796
 20
20.1906
 30
0.0
 40
0
 41
0
  0
VERTEX
  8
0
 10
9.97336
 20
20.1906
 30
0.0
 40
0
 41
0
  0
VERTEX
  8
0
 10
9.95856
 20
20.1906
 30
0.0
 40
0
 41
0
  0
VERTEX
  8
0
 10
9.91411
 20
20.2049
 30
0.0
 40
0
 41
0
  0
VERTEX
  8
0
 10
9.86768
 20
20.2439
 30
0.0
 40
0
 41
0
  0
VERTEX
  8
0
 10
9.83729
 20
20.3028
 30
0.0
 40
0
 41
0
  0
VERTEX
  8
0
 10
9.82644
 20
20.3582
 30
0.0
 40
0
 41
0
  0
VERTEX
  8
0
 10
9.82644
 20
20.3765
 30
0.0
 40
0
 41
0
  0
VERTEX
  8
0
 10
9.82644
 20
20.3851
 30
0.0
 40
0
 41
0
  0
VERTEX
  8
0
 10
9.82856
 20
20.4111
 30
0.0
 40
0
 41
0
  0
VERTEX
  8
0
 10
9.83507
 20
20.4447
 30
0.0
 40
0
 41
0
  0
VERTEX
  8
0
 10
9.84614
 20
20.4765
 30
0.0
 40
0
 41
0
  0
VERTEX
  8
0
 10
9.86187
 20
20.505
 30
0.0
 40
0
 41
0
  0
VERTEX
  8
0
 10
9.88249
 20
20.5293
 30
0.0
 40
0
 41
0
  0
VERTEX
  8
0
 10
9.90815
 20
20.5481
 30
0.0
 40
0
 41
0
  0
VERTEX
  8
0
 10
9.93901
 20
20.5603
 30
0.0
 40
0
 41
0
  0
VERTEX
  8
0
 10
9.96619
 20
20.5644
 30
0.0
 40
0
 41
0
  0
VERTEX
  8
0
 10
9.97532
 20
20.5644
 30
0.0
 40
0
 41
0
  0
SEQEND
 8
0
  0
POLYLINE
  8
0
 62
     0
 66
     1
 10
0
 20
0
 30
0.0
 70
     1
 40
0
 41
0
  0
VERTEX
  8
0
 10
10.2875
 20
20.1588
 30
0.0
 40
0
 41
0
  0
VERTEX
  8
0
 10
10.296
 20
20.1537
 30
0.0
 40
0
 41
0
  0
VERTEX
  8
0
 10
10.3483
 20
20.1347
 30
0.0
 40
0
 41
0
  0
VERTEX
  8
0
 10
10.4046
 20
20.1257
 30
0.0
 40
0
 41
0
  0
VERTEX
  8
0
 10
10.4234
 20
20.1257
 30
0.0
 40
0
 41
0
  0
VERTEX
  8
0
 10
10.4425
 20
20.1257
 30
0.0
 40
0
 41
0
  0
VERTEX
  8
0
 10
10.5002
 20
20.1364
 30
0.0
 40
0
 41
0
  0
VERTEX
  8
0
 10
10.557
 20
20.1662
 30
0.0
 40
0
 41
0
  0
VERTEX
  8
0
 10
10.5922
 20
20.2121
 30
0.0
 40
0
 41
0
  0
VERTEX
  8
0
 10
10.6044
 20
20.2561
 30
0.0
 40
0
 41
0
  0
VERTEX
  8
0
 10
10.6044
 20
20.2707
 30
0.0
 40
0
 41
0
  0
VERTEX
  8
0
 10
10.6044
 20
20.2829
 30
0.0
 40
0
 41
0
  0
VERTEX
  8
0
 10
10.5964
 20
20.3194
 30
0.0
 40
0
 41
0
  0
VERTEX
  8
0
 10
10.5724
 20
20.3586
 30
0.0
 40
0
 41
0
  0
VERTEX
  8
0
 10
10.5327
 20
20.3906
 30
0.0
 40
0
 41
0
  0
VERTEX
  8
0
 10
10.4916
 20
20.4112
 30
0.0
 40
0
 41
0
  0
VERTEX
  8
0
 10
10.4774
 20
20.4167
 30
0.0
 40
0
 41
0
  0
VERTEX
  8
0
 10
10.467
 20
20.4207
 30
0.0
 40
0
 41
0
  0
VERTEX
  8
0
 10
10.4365
 20
20.434
 30
0.0
 40
0
 41
0
  0
VERTEX
  8
0
 10
10.4078
 20
20.4517
 30
0.0
 40
0
 41
0
  0
VERTEX
  8
0
 10
10.3909
 20
20.4722
 30
0.0
 40
0
 41
0
  0
VERTEX
  8
0
 10
10.3854
 20
20.4919
 30
0.0
 40
0
 41
0
  0
VERTEX
  8
0
 10
10.3854
 20
20.4985
 30
0.0
 40
0
 41
0
  0
VERTEX
  8
0
 10
10.3854
 20
20.505
 30
0.0
 40
0
 41
0
  0
VERTEX
  8
0
 10
10.3907
 20
20.524
 30
0.0
 40
0
 41
0
  0
VERTEX
  8
0
 10
10.4064
 20
20.545
 30
0.0
 40
0
 41
0
  0
VERTEX
  8
0
 10
10.4318
 20
20.5593
 30
0.0
 40
0
 41
0
  0
VERTEX
  8
0
 10
10.4577
 20
20.5644
 30
0.0
 40
0
 41
0
  0
VERTEX
  8
0
 10
10.4664
 20
20.5644
 30
0.0
 40
0
 41
0
  0
VERTEX
  8
0
 10
10.4812
 20
20.5644
 30
0.0
 40
0
 41
0
  0
VERTEX
  8
0
 10
10.5257
 20
20.555
 30
0.0
 40
0
 41
0
  0
VERTEX
  8
0
 10
10.5606
 20
20.5396
 30
0.0
 40
0
 41
0
  0
VERTEX
  8
0
 10
10.5653
 20
20.5365
 30
0.0
 40
0
 41
0
  0
VERTEX
  8
0
 10
10.5875
 20
20.6006
 30
0.0
 40
0
 41
0
  0
VERTEX
  8
0
 10
10.5807
 20
20.6046
 30
0.0
 40
0
 41
0
  0
VERTEX
  8
0
 10
10.5361
 20
20.6215
 30
0.0
 40
0
 41
0
  0
VERTEX
  8
0
 10
10.4852
 20
20.6304
 30
0.0
 40
0
 41
0
  0
VERTEX
  8
0
 10
10.4683
 20
20.6304
 30
0.0
 40
0
 41
0
  0
VERTEX
  8
0
 10
10.4508
 20
20.6304
 30
0.0
 40
0
 41
0
  0
VERTEX
  8
0
 10
10.3984
 20
20.6193
 30
0.0
 40
0
 41
0
  0
VERTEX
  8
0
 10
10.3459
 20
20.5888
 30
0.0
 40
0
 41
0
  0
VERTEX
  8
0
 10
10.3129
 20
20.5438
 30
0.0
 40
0
 41
0
  0
VERTEX
  8
0
 10
10.3014
 20
20.5024
 30
0.0
 40
0
 41
0
  0
VERTEX
  8
0
 10
10.3014
 20
20.4886
 30
0.0
 40
0
 41
0
  0
VERTEX
  8
0
 10
10.3014
 20
20.4782
 30
0.0
 40
0
 41
0
  0
VERTEX
  8
0
 10
10.3092
 20
20.4471
 30
0.0
 40
0
 41
0
  0
VERTEX
  8
0
 10
10.3328
 20
20.41
 30
0.0
 40
0
 41
0
  0
VERTEX
  8
0
 10
10.3727
 20
20.3779
 30
0.0
 40
0
 41
0
  0
VERTEX
  8
0
 10
10.4148
 20
20.3569
 30
0.0
 40
0
 41
0
  0
VERTEX
  8
0
 10
10.4295
 20
20.3517
 30
0.0
 40
0
 41
0
  0
VERTEX
  8
0
 10
10.44
 20
20.3478
 30
0.0
 40
0
 41
0
  0
VERTEX
  8
0
 10
10.4709
 20
20.3336
 30
0.0
 40
0
 41
0
  0
VERTEX
  8
0
 10
10.4987
 20
20.314
 30
0.0
 40
0
 41
0
  0
VERTEX
  8
0
 10
10.5144
 20
20.291
 30
0.0
 40
0
 41
0
  0
VERTEX
  8
0
 10
10.5193
 20
20.2697
 30
0.0
 40
0
 41
0
  0
VERTEX
  8
0
 10
10.5193
 20
20.2626
 30
0.0
 40
0
 41
0
  0
VERTEX
  8
0
 10
10.5193
 20
20.2557
 30
0.0
 40
0
 41
0
  0
VERTEX
  8
0
 10
10.5136
 20
20.2346
 30
0.0
 40
0
 41
0
  0
VERTEX
  8
0
 10
10.4963
 20
20.2117
 30
0.0
 40
0
 41
0
  0
VERTEX
  8
0
 10
10.467
 20
20.1963
 30
0.0
 40
0
 41
0
  0
VERTEX
  8
0
 10
10.4358
 20
20.1906
 30
0.0
 40
0
 41
0
  0
VERTEX
  8
0
 10
10.4253
 20
20.1906
 30
0.0
 40
0
 41
0
  0
VERTEX
  8
0
 10
10.4171
 20
20.1906
 30
0.0
 40
0
 41
0
  0
VERTEX
  8
0
 10
10.3924
 20
20.1937
 30
0.0
 40
0
 41
0
  0
VERTEX
  8
0
 10
10.3607
 20
20.2018
 30
0.0
 40
0
 41
0
  0
VERTEX
  8
0
 10
10.3324
 20
20.2131
 30
0.0
 40
0
 41
0
  0
VERTEX
  8
0
 10
10.3149
 20
20.2222
 30
0.0
 40
0
 41
0
  0
VERTEX
  8
0
 10
10.3095
 20
20.2257
 30
0.0
 40
0
 41
0
  0
VERTEX
  8
0
 10
10.2875
 20
20.1588
 30
0.0
 40
0
 41
0
  0
SEQEND
 8
0
  0
POLYLINE
  8
0
 62
     0
 66
     1
 10
0
 20
0
 30
0.0
 70
     1
 40
0
 41
0
  0
VERTEX
  8
0
 10
10.8055
 20
20.1357
 30
0.0
 40
0
 41
0
  0
VERTEX
  8
0
 10
10.8055
 20
20.6196
 30
0.0
 40
0
 41
0
  0
VERTEX
  8
0
 10
10.7174
 20
20.6196
 30
0.0
 40
0
 41
0
  0
VERTEX
  8
0
 10
10.7174
 20
20.1357
 30
0.0
 40
0
 41
0
  0
VERTEX
  8
0
 10
10.8055
 20
20.1357
 30
0.0
 40
0
 41
0
  0
SEQEND
 8
0
  0
POLYLINE
  8
0
 62
     0
 66
     1
 10
0
 20
0
 30
0.0
 70
     1
 40
0
 41
0
  0
VERTEX
  8
0
 10
10.7614
 20
20.8106
 30
0.0
 40
0
 41
0
  0
VERTEX
  8
0
 10
10.7559
 20
20.8106
 30
0.0
 40
0
 41
0
  0
VERTEX
  8
0
 10
10.7394
 20
20.8064
 30
0.0
 40
0
 41
0
  0
VERTEX
  8
0
 10
10.722
 20
20.7947
 30
0.0
 40
0
 41
0
  0
VERTEX
  8
0
 10
10.7106
 20
20.7772
 30
0.0
 40
0
 41
0
  0
VERTEX
  8
0
 10
10.7065
 20
20.761
 30
0.0
 40
0
 41
0
  0
VERTEX
  8
0
 10
10.7065
 20
20.7554
 30
0.0
 40
0
 41
0
  0
VERTEX
  8
0
 10
10.7065
 20
20.7503
 30
0.0
 40
0
 41
0
  0
VERTEX
  8
0
 10
10.7104
 20
20.7344
 30
0.0
 40
0
 41
0
  0
VERTEX
  8
0
 10
10.7214
 20
20.7172
 30
0.0
 40
0
 41
0
  0
VERTEX
  8
0
 10
10.7381
 20
20.7057
 30
0.0
 40
0
 41
0
  0
VERTEX
  8
0
 10
10.7541
 20
20.7014
 30
0.0
 40
0
 41
0
  0
VERTEX
  8
0
 10
10.7595
 20
20.7014
 30
0.0
 40
0
 41
0
  0
VERTEX
  8
0
 10
10.7653
 20
20.7014
 30
0.0
 40
0
 41
0
  0
VERTEX
  8
0
 10
10.7831
 20
20.7057
 30
0.0
 40
0
 41
0
  0
VERTEX
  8
0
 10
10.8009
 20
20.7172
 30
0.0
 40
0
 41
0
  0
VERTEX
  8
0
 10
10.812
 20
20.7344
 30
0.0
 40
0
 41
0
  0
VERTEX
  8
0
 10
10.8156
 20
20.7503
 30
0.0
 40
0
 41
0
  0
VERTEX
  8
0
 10
10.8155
 20
20.7554
 30
0.0
 40
0
 41
0
  0
VERTEX
  8
0
 10
10.8155
 20
20.761
 30
0.0
 40
0
 41
0
  0
VERTEX
  8
0
 10
10.8116
 20
20.7772
 30
0.0
 40
0
 41
0
  0
VERTEX
  8
0
 10
10.8008
 20
20.7947
 30
0.0
 40
0
 41
0
  0
VERTEX
  8
0
 10
10.7838
 20
20.8064
 30
0.0
 40
0
 41
0
  0
VERTEX
  8
0
 10
10.767
 20
20.8106
 30
0.0
 40
0
 41
0
  0
VERTEX
  8
0
 10
10.7614
 20
20.8106
 30
0.0
 40
0
 41
0
  0
SEQEND
 8
0
  0
POLYLINE
  8
0
 62
     0
 66
     1
 10
0
 20
0
 30
0.0
 70
     1
 40
0
 41
0
  0
VERTEX
  8
0
 10
10.9714
 20
20.7356
 30
0.0
 40
0
 41
0
  0
VERTEX
  8
0
 10
10.9714
 20
20.6196
 30
0.0
 40
0
 41
0
  0
VERTEX
  8
0
 10
10.8965
 20
20.6196
 30
0.0
 40
0
 41
0
  0
VERTEX
  8
0
 10
10.8965
 20
20.5526
 30
0.0
 40
0
 41
0
  0
VERTEX
  8
0
 10
10.9714
 20
20.5526
 30
0.0
 40
0
 41
0
  0
VERTEX
  8
0
 10
10.9714
 20
20.2888
 30
0.0
 40
0
 41
0
  0
VERTEX
  8
0
 10
10.9714
 20
20.27
 30
0.0
 40
0
 41
0
  0
VERTEX
  8
0
 10
10.979
 20
20.214
 30
0.0
 40
0
 41
0
  0
VERTEX
  8
0
 10
10.9992
 20
20.1692
 30
0.0
 40
0
 41
0
  0
VERTEX
  8
0
 10
11.0054
 20
20.1626
 30
0.0
 40
0
 41
0
  0
VERTEX
  8
0
 10
11.0107
 20
20.1567
 30
0.0
 40
0
 41
0
  0
VERTEX
  8
0
 10
11.0455
 20
20.1351
 30
0.0
 40
0
 41
0
  0
VERTEX
  8
0
 10
11.0867
 20
20.1257
 30
0.0
 40
0
 41
0
  0
VERTEX
  8
0
 10
11.1005
 20
20.1257
 30
0.0
 40
0
 41
0
  0
VERTEX
  8
0
 10
11.1118
 20
20.1257
 30
0.0
 40
0
 41
0
  0
VERTEX
  8
0
 10
11.1458
 20
20.129
 30
0.0
 40
0
 41
0
  0
VERTEX
  8
0
 10
11.1742
 20
20.136
 30
0.0
 40
0
 41
0
  0
VERTEX
  8
0
 10
11.1784
 20
20.1376
 30
0.0
 40
0
 41
0
  0
VERTEX
  8
0
 10
11.1745
 20
20.2036
 30
0.0
 40
0
 41
0
  0
VERTEX
  8
0
 10
11.1717
 20
20.2029
 30
0.0
 40
0
 41
0
  0
VERTEX
  8
0
 10
11.1355
 20
20.1978
 30
0.0
 40
0
 41
0
  0
VERTEX
  8
0
 10
11.1235
 20
20.1978
 30
0.0
 40
0
 41
0
  0
VERTEX
  8
0
 10
11.1157
 20
20.1978
 30
0.0
 40
0
 41
0
  0
VERTEX
  8
0
 10
11.0924
 20
20.204
 30
0.0
 40
0
 41
0
  0
VERTEX
  8
0
 10
11.0721
 20
20.2222
 30
0.0
 40
0
 41
0
  0
VERTEX
  8
0
 10
11.0609
 20
20.2517
 30
0.0
 40
0
 41
0
  0
VERTEX
  8
0
 10
11.0575
 20
20.2818
 30
0.0
 40
0
 41
0
  0
VERTEX
  8
0
 10
11.0575
 20
20.2917
 30
0.0
 40
0
 41
0
  0
VERTEX
  8
0
 10
11.0575
 20
20.5526
 30
0.0
 40
0
 41
0
  0
VERTEX
  8
0
 10
11.1834
 20
20.5526
 30
0.0
 40
0
 41
0
  0
VERTEX
  8
0
 10
11.1834
 20
20.6196
 30
0.0
 40
0
 41
0
  0
VERTEX
  8
0
 10
11.0575
 20
20.6196
 30
0.0
 40
0
 41
0
  0
VERTEX
  8
0
 10
11.0575
 20
20.7585
 30
0.0
 40
0
 41
0
  0
VERTEX
  8
0
 10
10.9714
 20
20.7356
 30
0.0
 40
0
 41
0
  0
SEQEND
 8
0
  0
POLYLINE
  8
0
 62
     0
 66
     1
 10
0
 20
0
 30
0.0
 70
     1
 40
0
 41
0
  0
VERTEX
  8
0
 10
11.3704
 20
20.1357
 30
0.0
 40
0
 41
0
  0
VERTEX
  8
0
 10
11.3704
 20
20.6196
 30
0.0
 40
0
 41
0
  0
VERTEX
  8
0
 10
11.2823
 20
20.6196
 30
0.0
 40
0
 41
0
  0
VERTEX
  8
0
 10
11.2823
 20
20.1357
 30
0.0
 40
0
 41
0
  0
VERTEX
  8
0
 10
11.3704
 20
20.1357
 30
0.0
 40
0
 41
0
  0
SEQEND
 8
0
  0
POLYLINE
  8
0
 62
     0
 66
     1
 10
0
 20
0
 30
0.0
 70
     1
 40
0
 41
0
  0
VERTEX
  8
0
 10
11.3264
 20
20.8106
 30
0.0
 40
0
 41
0
  0
VERTEX
  8
0
 10
11.3209
 20
20.8106
 30
0.0
 40
0
 41
0
  0
VERTEX
  8
0
 10
11.3043
 20
20.8064
 30
0.0
 40
0
 41
0
  0
VERTEX
  8
0
 10
11.2869
 20
20.7947
 30
0.0
 40
0
 41
0
  0
VERTEX
  8
0
 10
11.2756
 20
20.7772
 30
0.0
 40
0
 41
0
  0
VERTEX
  8
0
 10
11.2715
 20
20.761
 30
0.0
 40
0
 41
0
  0
VERTEX
  8
0
 10
11.2715
 20
20.7554
 30
0.0
 40
0
 41
0
  0
VERTEX
  8
0
 10
11.2715
 20
20.7503
 30
0.0
 40
0
 41
0
  0
VERTEX
  8
0
 10
11.2754
 20
20.7344
 30
0.0
 40
0
 41
0
  0
VERTEX
  8
0
 10
11.2863
 20
20.7172
 30
0.0
 40
0
 41
0
  0
VERTEX
  8
0
 10
11.3031
 20
20.7057
 30
0.0
 40
0
 41
0
  0
VERTEX
  8
0
 10
11.3191
 20
20.7014
 30
0.0
 40
0
 41
0
  0
VERTEX
  8
0
 10
11.3244
 20
20.7014
 30
0.0
 40
0
 41
0
  0
VERTEX
  8
0
 10
11.3303
 20
20.7014
 30
0.0
 40
0
 41
0
  0
VERTEX
  8
0
 10
11.348
 20
20.7057
 30
0.0
 40
0
 41
0
  0
VERTEX
  8
0
 10
11.3658
 20
20.7172
 30
0.0
 40
0
 41
0
  0
VERTEX
  8
0
 10
11.377
 20
20.7344
 30
0.0
 40
0
 41
0
  0
VERTEX
  8
0
 10
11.3805
 20
20.7503
 30
0.0
 40
0
 41
0
  0
VERTEX
  8
0
 10
11.3804
 20
20.7554
 30
0.0
 40
0
 41
0
  0
VERTEX
  8
0
 10
11.3804
 20
20.761
 30
0.0
 40
0
 41
0
  0
VERTEX
  8
0
 10
11.3766
 20
20.7772
 30
0.0
 40
0
 41
0
  0
VERTEX
  8
0
 10
11.3658
 20
20.7947
 30
0.0
 40
0
 41
0
  0
VERTEX
  8
0
 10
11.3487
 20
20.8064
 30
0.0
 40
0
 41
0
  0
VERTEX
  8
0
 10
11.332
 20
20.8106
 30
0.0
 40
0
 41
0
  0
VERTEX
  8
0
 10
11.3264
 20
20.8106
 30
0.0
 40
0
 41
0
  0
SEQEND
 8
0
  0
POLYLINE
  8
0
 62
     0
 66
     1
 10
0
 20
0
 30
0.0
 70
     1
 40
0
 41
0
  0
VERTEX
  8
0
 10
11.4564
 20
20.6196
 30
0.0
 40
0
 41
0
  0
VERTEX
  8
0
 10
11.6405
 20
20.1357
 30
0.0
 40
0
 41
0
  0
VERTEX
  8
0
 10
11.7244
 20
20.1357
 30
0.0
 40
0
 41
0
  0
VERTEX
  8
0
 10
11.9143
 20
20.6196
 30
0.0
 40
0
 41
0
  0
VERTEX
  8
0
 10
11.8223
 20
20.6196
 30
0.0
 40
0
 41
0
  0
VERTEX
  8
0
 10
11.7283
 20
20.3478
 30
0.0
 40
0
 41
0
  0
VERTEX
  8
0
 10
11.7243
 20
20.3367
 30
0.0
 40
0
 41
0
  0
VERTEX
  8
0
 10
11.6901
 20
20.2336
 30
0.0
 40
0
 41
0
  0
VERTEX
  8
0
 10
11.6873
 20
20.2236
 30
0.0
 40
0
 41
0
  0
VERTEX
  8
0
 10
11.6843
 20
20.2236
 30
0.0
 40
0
 41
0
  0
VERTEX
  8
0
 10
11.6818
 20
20.2336
 30
0.0
 40
0
 41
0
  0
VERTEX
  8
0
 10
11.6494
 20
20.3367
 30
0.0
 40
0
 41
0
  0
VERTEX
  8
0
 10
11.6455
 20
20.3478
 30
0.0
 40
0
 41
0
  0
VERTEX
  8
0
 10
11.5504
 20
20.6196
 30
0.0
 40
0
 41
0
  0
VERTEX
  8
0
 10
11.4564
 20
20.6196
 30
0.0
 40
0
 41
0
  0
SEQEND
 8
0
  0
POLYLINE
  8
0
 62
     0
 66
     1
 10
0
 20
0
 30
0.0
 70
     1
 40
0
 41
0
  0
VERTEX
  8
0
 10
12.3762
 20
20.3617
 30
0.0
 40
0
 41
0
  0
VERTEX
  8
0
 10
12.3765
 20
20.3639
 30
0.0
 40
0
 41
0
  0
VERTEX
  8
0
 10
12.3792
 20
20.3929
 30
0.0
 40
0
 41
0
  0
VERTEX
  8
0
 10
12.3792
 20
20.4026
 30
0.0
 40
0
 41
0
  0
VERTEX
  8
0
 10
12.3792
 20
20.421
 30
0.0
 40
0
 41
0
  0
VERTEX
  8
0
 10
12.3702
 20
20.4758
 30
0.0
 40
0
 41
0
  0
VERTEX
  8
0
 10
12.3385
 20
20.5499
 30
0.0
 40
0
 41
0
  0
VERTEX
  8
0
 10
12.2772
 20
20.6074
 30
0.0
 40
0
 41
0
  0
VERTEX
  8
0
 10
12.2038
 20
20.6304
 30
0.0
 40
0
 41
0
  0
VERTEX
  8
0
 10
12.1794
 20
20.6304
 30
0.0
 40
0
 41
0
  0
VERTEX
  8
0
 10
12.1556
 20
20.6304
 30
0.0
 40
0
 41
0
  0
VERTEX
  8
0
 10
12.0844
 20
20.6103
 30
0.0
 40
0
 41
0
  0
VERTEX
  8
0
 10
12.013
 20
20.5549
 30
0.0
 40
0
 41
0
  0
VERTEX
  8
0
 10
11.968
 20
20.4719
 30
0.0
 40
0
 41
0
  0
VERTEX
  8
0
 10
11.9524
 20
20.3953
 30
0.0
 40
0
 41
0
  0
VERTEX
  8
0
 10
11.9524
 20
20.3696
 30
0.0
 40
0
 41
0
  0
VERTEX
  8
0
 10
11.9524
 20
20.3447
 30
0.0
 40
0
 41
0
  0
VERTEX
  8
0
 10
11.9686
 20
20.2699
 30
0.0
 40
0
 41
0
  0
VERTEX
  8
0
 10
12.0155
 20
20.1929
 30
0.0
 40
0
 41
0
  0
VERTEX
  8
0
 10
12.0902
 20
20.1433
 30
0.0
 40
0
 41
0
  0
VERTEX
  8
0
 10
12.1652
 20
20.1257
 30
0.0
 40
0
 41
0
  0
VERTEX
  8
0
 10
12.1902
 20
20.1257
 30
0.0
 40
0
 41
0
  0
VERTEX
  8
0
 10
12.2035
 20
20.1257
 30
0.0
 40
0
 41
0
  0
VERTEX
  8
0
 10
12.2435
 20
20.1285
 30
0.0
 40
0
 41
0
  0
VERTEX
  8
0
 10
12.288
 20
20.1354
 30
0.0
 40
0
 41
0
  0
VERTEX
  8
0
 10
12.3238
 20
20.1451
 30
0.0
 40
0
 41
0
  0
VERTEX
  8
0
 10
12.3445
 20
20.1526
 30
0.0
 40
0
 41
0
  0
VERTEX
  8
0
 10
12.3512
 20
20.1557
 30
0.0
 40
0
 41
0
  0
VERTEX
  8
0
 10
12.3363
 20
20.2186
 30
0.0
 40
0
 41
0
  0
VERTEX
  8
0
 10
12.328
 20
20.2151
 30
0.0
 40
0
 41
0
  0
VERTEX
  8
0
 10
12.2805
 20
20.2008
 30
0.0
 40
0
 41
0
  0
VERTEX
  8
0
 10
12.2219
 20
20.1936
 30
0.0
 40
0
 41
0
  0
VERTEX
  8
0
 10
12.2024
 20
20.1936
 30
0.0
 40
0
 41
0
  0
VERTEX
  8
0
 10
12.1866
 20
20.1936
 30
0.0
 40
0
 41
0
  0
VERTEX
  8
0
 10
12.1395
 20
20.2032
 30
0.0
 40
0
 41
0
  0
VERTEX
  8
0
 10
12.087
 20
20.2331
 30
0.0
 40
0
 41
0
  0
VERTEX
  8
0
 10
12.0507
 20
20.2853
 30
0.0
 40
0
 41
0
  0
VERTEX
  8
0
 10
12.0366
 20
20.3425
 30
0.0
 40
0
 41
0
  0
VERTEX
  8
0
 10
12.0363
 20
20.3617
 30
0.0
 40
0
 41
0
  0
VERTEX
  8
0
 10
12.3762
 20
20.3617
 30
0.0
 40
0
 41
0
  0
SEQEND
 8
0
  0
POLYLINE
  8
0
 62
     0
 66
     1
 10
0
 20
0
 30
0.0
 70
     1
 40
0
 41
0
  0
VERTEX
  8
0
 10
12.0374
 20
20.4246
 30
0.0
 40
0
 41
0
  0
VERTEX
  8
0
 10
12.0388
 20
20.4368
 30
0.0
 40
0
 41
0
  0
VERTEX
  8
0
 10
12.0489
 20
20.4726
 30
0.0
 40
0
 41
0
  0
VERTEX
  8
0
 10
12.0742
 20
20.5189
 30
0.0
 40
0
 41
0
  0
VERTEX
  8
0
 10
12.1148
 20
20.5539
 30
0.0
 40
0
 41
0
  0
VERTEX
  8
0
 10
12.158
 20
20.5675
 30
0.0
 40
0
 41
0
  0
VERTEX
  8
0
 10
12.1724
 20
20.5675
 30
0.0
 40
0
 41
0
  0
VERTEX
  8
0
 10
12.1808
 20
20.5675
 30
0.0
 40
0
 41
0
  0
VERTEX
  8
0
 10
12.2061
 20
20.5637
 30
0.0
 40
0
 41
0
  0
VERTEX
  8
0
 10
12.2333
 20
20.5531
 30
0.0
 40
0
 41
0
  0
VERTEX
  8
0
 10
12.2547
 20
20.5371
 30
0.0
 40
0
 41
0
  0
VERTEX
  8
0
 10
12.2708
 20
20.5171
 30
0.0
 40
0
 41
0
  0
VERTEX
  8
0
 10
12.2822
 20
20.4944
 30
0.0
 40
0
 41
0
  0
VERTEX
  8
0
 10
12.2896
 20
20.4706
 30
0.0
 40
0
 41
0
  0
VERTEX
  8
0
 10
12.2934
 20
20.4468
 30
0.0
 40
0
 41
0
  0
VERTEX
  8
0
 10
12.2944
 20
20.4301
 30
0.0
 40
0
 41
0
  0
VERTEX
  8
0
 10
12.2944
 20
20.4246
 30
0.0
 40
0
 41
0
  0
VERTEX
  8
0
 10
12.0374
 20
20.4246
 30
0.0
 40
0
 41
0
  0
SEQEND
 8
0
  0
POLYLINE
  8
0
 62
     0
 66
     1
 10
0
 20
0
 30
0.0
 70
     1
 40
0
 41
0
  0
VERTEX
  8
0
 10
12.7033
 20
20.1357
 30
0.0
 40
0
 41
0
  0
VERTEX
  8
0
 10
12.7903
 20
20.1357
 30
0.0
 40
0
 41
0
  0
VERTEX
  8
0
 10
12.7903
 20
20.4276
 30
0.0
 40
0
 41
0
  0
VERTEX
  8
0
 10
12.8723
 20
20.4276
 30
0.0
 40
0
 41
0
  0
VERTEX
  8
0
 10
12.8852
 20
20.4271
 30
0.0
 40
0
 41
0
  0
VERTEX
  8
0
 10
12.9239
 20
20.4189
 30
0.0
 40
0
 41
0
  0
VERTEX
  8
0
 10
12.9619
 20
20.3958
 30
0.0
 40
0
 41
0
  0
VERTEX
  8
0
 10
12.9888
 20
20.356
 30
0.0
 40
0
 41
0
  0
VERTEX
  8
0
 10
13.004
 20
20.3118
 30
0.0
 40
0
 41
0
  0
VERTEX
  8
0
 10
13.0073
 20
20.2967
 30
0.0
 40
0
 41
0
  0
VERTEX
  8
0
 10
13.0106
 20
20.2822
 30
0.0
 40
0
 41
0
  0
VERTEX
  8
0
 10
13.0207
 20
20.2389
 30
0.0
 40
0
 41
0
  0
VERTEX
  8
0
 10
13.0327
 20
20.1919
 30
0.0
 40
0
 41
0
  0
VERTEX
  8
0
 10
13.0432
 20
20.1571
 30
0.0
 40
0
 41
0
  0
VERTEX
  8
0
 10
13.0495
 20
20.1404
 30
0.0
 40
0
 41
0
  0
VERTEX
  8
0
 10
13.0523
 20
20.1357
 30
0.0
 40
0
 41
0
  0
VERTEX
  8
0
 10
13.1423
 20
20.1357
 30
0.0
 40
0
 41
0
  0
VERTEX
  8
0
 10
13.1389
 20
20.1421
 30
0.0
 40
0
 41
0
  0
VERTEX
  8
0
 10
13.1313
 20
20.1624
 30
0.0
 40
0
 41
0
  0
VERTEX
  8
0
 10
13.1192
 20
20.2026
 30
0.0
 40
0
 41
0
  0
VERTEX
  8
0
 10
13.1056
 20
20.2557
 30
0.0
 40
0
 41
0
  0
VERTEX
  8
0
 10
13.094
 20
20.3044
 30
0.0
 40
0
 41
0
  0
VERTEX
  8
0
 10
13.0902
 20
20.3206
 30
0.0
 40
0
 41
0
  0
VERTEX
  8
0
 10
13.0874
 20
20.3329
 30
0.0
 40
0
 41
0
  0
VERTEX
  8
0
 10
13.0753
 20
20.3689
 30
0.0
 40
0
 41
0
  0
VERTEX
  8
0
 10
13.0541
 20
20.4082
 30
0.0
 40
0
 41
0
  0
VERTEX
  8
0
 10
13.0263
 20
20.4376
 30
0.0
 40
0
 41
0
  0
VERTEX
  8
0
 10
13.0005
 20
20.4535
 30
0.0
 40
0
 41
0
  0
VERTEX
  8
0
 10
12.9913
 20
20.4567
 30
0.0
 40
0
 41
0
  0
VERTEX
  8
0
 10
12.9913
 20
20.4597
 30
0.0
 40
0
 41
0
  0
VERTEX
  8
0
 10
13.0042
 20
20.464
 30
0.0
 40
0
 41
0
  0
VERTEX
  8
0
 10
13.041
 20
20.4842
 30
0.0
 40
0
 41
0
  0
VERTEX
  8
0
 10
13.0813
 20
20.5213
 30
0.0
 40
0
 41
0
  0
VERTEX
  8
0
 10
13.1083
 20
20.5706
 30
0.0
 40
0
 41
0
  0
VERTEX
  8
0
 10
13.1182
 20
20.6164
 30
0.0
 40
0
 41
0
  0
VERTEX
  8
0
 10
13.1182
 20
20.6315
 30
0.0
 40
0
 41
0
  0
VERTEX
  8
0
 10
13.1182
 20
20.6496
 30
0.0
 40
0
 41
0
  0
VERTEX
  8
0
 10
13.1044
 20
20.7039
 30
0.0
 40
0
 41
0
  0
VERTEX
  8
0
 10
13.0737
 20
20.7521
 30
0.0
 40
0
 41
0
  0
VERTEX
  8
0
 10
13.0653
 20
20.7596
 30
0.0
 40
0
 41
0
  0
VERTEX
  8
0
 10
13.0573
 20
20.7668
 30
0.0
 40
0
 41
0
  0
VERTEX
  8
0
 10
13.0301
 20
20.7842
 30
0.0
 40
0
 41
0
  0
VERTEX
  8
0
 10
12.9868
 20
20.8014
 30
0.0
 40
0
 41
0
  0
VERTEX
  8
0
 10
12.934
 20
20.8113
 30
0.0
 40
0
 41
0
  0
VERTEX
  8
0
 10
12.8861
 20
20.8144
 30
0.0
 40
0
 41
0
  0
VERTEX
  8
0
 10
12.8702
 20
20.8144
 30
0.0
 40
0
 41
0
  0
VERTEX
  8
0
 10
12.8478
 20
20.8144
 30
0.0
 40
0
 41
0
  0
VERTEX
  8
0
 10
12.7808
 20
20.811
 30
0.0
 40
0
 41
0
  0
VERTEX
  8
0
 10
12.7143
 20
20.8028
 30
0.0
 40
0
 41
0
  0
VERTEX
  8
0
 10
12.7033
 20
20.8006
 30
0.0
 40
0
 41
0
  0
VERTEX
  8
0
 10
12.7033
 20
20.1357
 30
0.0
 40
0
 41
0
  0
SEQEND
 8
0
  0
POLYLINE
  8
0
 62
     0
 66
     1
 10
0
 20
0
 30
0.0
 70
     1
 40
0
 41
0
  0
VERTEX
  8
0
 10
12.7903
 20
20.7396
 30
0.0
 40
0
 41
0
  0
VERTEX
  8
0
 10
12.7938
 20
20.7406
 30
0.0
 40
0
 41
0
  0
VERTEX
  8
0
 10
12.8227
 20
20.745
 30
0.0
 40
0
 41
0
  0
VERTEX
  8
0
 10
12.8628
 20
20.7475
 30
0.0
 40
0
 41
0
  0
VERTEX
  8
0
 10
12.8763
 20
20.7475
 30
0.0
 40
0
 41
0
  0
VERTEX
  8
0
 10
12.892
 20
20.7474
 30
0.0
 40
0
 41
0
  0
VERTEX
  8
0
 10
12.9392
 20
20.7397
 30
0.0
 40
0
 41
0
  0
VERTEX
  8
0
 10
12.9882
 20
20.7168
 30
0.0
 40
0
 41
0
  0
VERTEX
  8
0
 10
13.0199
 20
20.6778
 30
0.0
 40
0
 41
0
  0
VERTEX
  8
0
 10
13.0312
 20
20.6357
 30
0.0
 40
0
 41
0
  0
VERTEX
  8
0
 10
13.0312
 20
20.6215
 30
0.0
 40
0
 41
0
  0
VERTEX
  8
0
 10
13.0312
 20
20.6085
 30
0.0
 40
0
 41
0
  0
VERTEX
  8
0
 10
13.0205
 20
20.5692
 30
0.0
 40
0
 41
0
  0
VERTEX
  8
0
 10
12.9901
 20
20.5287
 30
0.0
 40
0
 41
0
  0
VERTEX
  8
0
 10
12.9422
 20
20.5028
 30
0.0
 40
0
 41
0
  0
VERTEX
  8
0
 10
12.895
 20
20.4936
 30
0.0
 40
0
 41
0
  0
VERTEX
  8
0
 10
12.8793
 20
20.4936
 30
0.0
 40
0
 41
0
  0
VERTEX
  8
0
 10
12.7903
 20
20.4936
 30
0.0
 40
0
 41
0
  0
VERTEX
  8
0
 10
12.7903
 20
20.7396
 30
0.0
 40
0
 41
0
  0
SEQEND
 8
0
  0
POLYLINE
  8
0
 62
     0
 66
     1
 10
0
 20
0
 30
0.0
 70
     1
 40
0
 41
0
  0
VERTEX
  8
0
 10
13.6311
 20
20.3617
 30
0.0
 40
0
 41
0
  0
VERTEX
  8
0
 10
13.6313
 20
20.3639
 30
0.0
 40
0
 41
0
  0
VERTEX
  8
0
 10
13.6341
 20
20.3929
 30
0.0
 40
0
 41
0
  0
VERTEX
  8
0
 10
13.6341
 20
20.4026
 30
0.0
 40
0
 41
0
  0
VERTEX
  8
0
 10
13.6341
 20
20.421
 30
0.0
 40
0
 41
0
  0
VERTEX
  8
0
 10
13.6251
 20
20.4758
 30
0.0
 40
0
 41
0
  0
VERTEX
  8
0
 10
13.5934
 20
20.5499
 30
0.0
 40
0
 41
0
  0
VERTEX
  8
0
 10
13.5321
 20
20.6074
 30
0.0
 40
0
 41
0
  0
VERTEX
  8
0
 10
13.4587
 20
20.6304
 30
0.0
 40
0
 41
0
  0
VERTEX
  8
0
 10
13.4342
 20
20.6304
 30
0.0
 40
0
 41
0
  0
VERTEX
  8
0
 10
13.4105
 20
20.6304
 30
0.0
 40
0
 41
0
  0
VERTEX
  8
0
 10
13.3393
 20
20.6103
 30
0.0
 40
0
 41
0
  0
VERTEX
  8
0
 10
13.2678
 20
20.5549
 30
0.0
 40
0
 41
0
  0
VERTEX
  8
0
 10
13.2229
 20
20.4719
 30
0.0
 40
0
 41
0
  0
VERTEX
  8
0
 10
13.2073
 20
20.3953
 30
0.0
 40
0
 41
0
  0
VERTEX
  8
0
 10
13.2073
 20
20.3696
 30
0.0
 40
0
 41
0
  0
VERTEX
  8
0
 10
13.2073
 20
20.3447
 30
0.0
 40
0
 41
0
  0
VERTEX
  8
0
 10
13.2235
 20
20.2699
 30
0.0
 40
0
 41
0
  0
VERTEX
  8
0
 10
13.2703
 20
20.1929
 30
0.0
 40
0
 41
0
  0
VERTEX
  8
0
 10
13.3451
 20
20.1433
 30
0.0
 40
0
 41
0
  0
VERTEX
  8
0
 10
13.4201
 20
20.1257
 30
0.0
 40
0
 41
0
  0
VERTEX
  8
0
 10
13.4451
 20
20.1257
 30
0.0
 40
0
 41
0
  0
VERTEX
  8
0
 10
13.4584
 20
20.1257
 30
0.0
 40
0
 41
0
  0
VERTEX
  8
0
 10
13.4984
 20
20.1285
 30
0.0
 40
0
 41
0
  0
VERTEX
  8
0
 10
13.5429
 20
20.1354
 30
0.0
 40
0
 41
0
  0
VERTEX
  8
0
 10
13.5787
 20
20.1451
 30
0.0
 40
0
 41
0
  0
VERTEX
  8
0
 10
13.5994
 20
20.1526
 30
0.0
 40
0
 41
0
  0
VERTEX
  8
0
 10
13.6061
 20
20.1557
 30
0.0
 40
0
 41
0
  0
VERTEX
  8
0
 10
13.5912
 20
20.2186
 30
0.0
 40
0
 41
0
  0
VERTEX
  8
0
 10
13.5829
 20
20.2151
 30
0.0
 40
0
 41
0
  0
VERTEX
  8
0
 10
13.5354
 20
20.2008
 30
0.0
 40
0
 41
0
  0
VERTEX
  8
0
 10
13.4768
 20
20.1936
 30
0.0
 40
0
 41
0
  0
VERTEX
  8
0
 10
13.4573
 20
20.1936
 30
0.0
 40
0
 41
0
  0
VERTEX
  8
0
 10
13.4415
 20
20.1936
 30
0.0
 40
0
 41
0
  0
VERTEX
  8
0
 10
13.3944
 20
20.2032
 30
0.0
 40
0
 41
0
  0
VERTEX
  8
0
 10
13.3419
 20
20.2331
 30
0.0
 40
0
 41
0
  0
VERTEX
  8
0
 10
13.3056
 20
20.2853
 30
0.0
 40
0
 41
0
  0
VERTEX
  8
0
 10
13.2915
 20
20.3425
 30
0.0
 40
0
 41
0
  0
VERTEX
  8
0
 10
13.2912
 20
20.3617
 30
0.0
 40
0
 41
0
  0
VERTEX
  8
0
 10
13.6311
 20
20.3617
 30
0.0
 40
0
 41
0
  0
SEQEND
 8
0
  0
POLYLINE
  8
0
 62
     0
 66
     1
 10
0
 20
0
 30
0.0
 70
     1
 40
0
 41
0
  0
VERTEX
  8
0
 10
13.2923
 20
20.4246
 30
0.0
 40
0
 41
0
  0
VERTEX
  8
0
 10
13.2937
 20
20.4368
 30
0.0
 40
0
 41
0
  0
VERTEX
  8
0
 10
13.3038
 20
20.4726
 30
0.0
 40
0
 41
0
  0
VERTEX
  8
0
 10
13.329
 20
20.5189
 30
0.0
 40
0
 41
0
  0
VERTEX
  8
0
 10
13.3696
 20
20.5539
 30
0.0
 40
0
 41
0
  0
VERTEX
  8
0
 10
13.4129
 20
20.5675
 30
0.0
 40
0
 41
0
  0
VERTEX
  8
0
 10
13.4273
 20
20.5675
 30
0.0
 40
0
 41
0
  0
VERTEX
  8
0
 10
13.4357
 20
20.5675
 30
0.0
 40
0
 41
0
  0
VERTEX
  8
0
 10
13.4609
 20
20.5637
 30
0.0
 40
0
 41
0
  0
VERTEX
  8
0
 10
13.4882
 20
20.5531
 30
0.0
 40
0
 41
0
  0
VERTEX
  8
0
 10
13.5096
 20
20.5371
 30
0.0
 40
0
 41
0
  0
VERTEX
  8
0
 10
13.5257
 20
20.5171
 30
0.0
 40
0
 41
0
  0
VERTEX
  8
0
 10
13.5371
 20
20.4944
 30
0.0
 40
0
 41
0
  0
VERTEX
  8
0
 10
13.5445
 20
20.4706
 30
0.0
 40
0
 41
0
  0
VERTEX
  8
0
 10
13.5483
 20
20.4468
 30
0.0
 40
0
 41
0
  0
VERTEX
  8
0
 10
13.5493
 20
20.4301
 30
0.0
 40
0
 41
0
  0
VERTEX
  8
0
 10
13.5493
 20
20.4246
 30
0.0
 40
0
 41
0
  0
VERTEX
  8
0
 10
13.2923
 20
20.4246
 30
0.0
 40
0
 41
0
  0
SEQEND
 8
0
  0
POLYLINE
  8
0
 62
     0
 66
     1
 10
0
 20
0
 30
0.0
 70
     1
 40
0
 41
0
  0
VERTEX
  8
0
 10
13.6833
 20
20.6196
 30
0.0
 40
0
 41
0
  0
VERTEX
  8
0
 10
13.8673
 20
20.1357
 30
0.0
 40
0
 41
0
  0
VERTEX
  8
0
 10
13.9512
 20
20.1357
 30
0.0
 40
0
 41
0
  0
VERTEX
  8
0
 10
14.1411
 20
20.6196
 30
0.0
 40
0
 41
0
  0
VERTEX
  8
0
 10
14.0492
 20
20.6196
 30
0.0
 40
0
 41
0
  0
VERTEX
  8
0
 10
13.9551
 20
20.3478
 30
0.0
 40
0
 41
0
  0
VERTEX
  8
0
 10
13.9511
 20
20.3367
 30
0.0
 40
0
 41
0
  0
VERTEX
  8
0
 10
13.9169
 20
20.2336
 30
0.0
 40
0
 41
0
  0
VERTEX
  8
0
 10
13.9142
 20
20.2236
 30
0.0
 40
0
 41
0
  0
VERTEX
  8
0
 10
13.9111
 20
20.2236
 30
0.0
 40
0
 41
0
  0
VERTEX
  8
0
 10
13.9086
 20
20.2336
 30
0.0
 40
0
 41
0
  0
VERTEX
  8
0
 10
13.8763
 20
20.3367
 30
0.0
 40
0
 41
0
  0
VERTEX
  8
0
 10
13.8723
 20
20.3478
 30
0.0
 40
0
 41
0
  0
VERTEX
  8
0
 10
13.7772
 20
20.6196
 30
0.0
 40
0
 41
0
  0
VERTEX
  8
0
 10
13.6833
 20
20.6196
 30
0.0
 40
0
 41
0
  0
SEQEND
 8
0
  0
POLYLINE
  8
0
 62
     0
 66
     1
 10
0
 20
0
 30
0.0
 70
     1
 40
0
 41
0
  0
VERTEX
  8
0
 10
14.6031
 20
20.3617
 30
0.0
 40
0
 41
0
  0
VERTEX
  8
0
 10
14.6033
 20
20.3639
 30
0.0
 40
0
 41
0
  0
VERTEX
  8
0
 10
14.6061
 20
20.3929
 30
0.0
 40
0
 41
0
  0
VERTEX
  8
0
 10
14.6061
 20
20.4026
 30
0.0
 40
0
 41
0
  0
VERTEX
  8
0
 10
14.6061
 20
20.421
 30
0.0
 40
0
 41
0
  0
VERTEX
  8
0
 10
14.5969
 20
20.4758
 30
0.0
 40
0
 41
0
  0
VERTEX
  8
0
 10
14.5654
 20
20.5499
 30
0.0
 40
0
 41
0
  0
VERTEX
  8
0
 10
14.504
 20
20.6074
 30
0.0
 40
0
 41
0
  0
VERTEX
  8
0
 10
14.4307
 20
20.6304
 30
0.0
 40
0
 41
0
  0
VERTEX
  8
0
 10
14.4063
 20
20.6304
 30
0.0
 40
0
 41
0
  0
VERTEX
  8
0
 10
14.3825
 20
20.6304
 30
0.0
 40
0
 41
0
  0
VERTEX
  8
0
 10
14.3113
 20
20.6103
 30
0.0
 40
0
 41
0
  0
VERTEX
  8
0
 10
14.2399
 20
20.5549
 30
0.0
 40
0
 41
0
  0
VERTEX
  8
0
 10
14.1949
 20
20.4719
 30
0.0
 40
0
 41
0
  0
VERTEX
  8
0
 10
14.1792
 20
20.3953
 30
0.0
 40
0
 41
0
  0
VERTEX
  8
0
 10
14.1792
 20
20.3696
 30
0.0
 40
0
 41
0
  0
VERTEX
  8
0
 10
14.1792
 20
20.3447
 30
0.0
 40
0
 41
0
  0
VERTEX
  8
0
 10
14.1954
 20
20.2699
 30
0.0
 40
0
 41
0
  0
VERTEX
  8
0
 10
14.2424
 20
20.1929
 30
0.0
 40
0
 41
0
  0
VERTEX
  8
0
 10
14.3171
 20
20.1433
 30
0.0
 40
0
 41
0
  0
VERTEX
  8
0
 10
14.3921
 20
20.1257
 30
0.0
 40
0
 41
0
  0
VERTEX
  8
0
 10
14.4171
 20
20.1257
 30
0.0
 40
0
 41
0
  0
VERTEX
  8
0
 10
14.4303
 20
20.1257
 30
0.0
 40
0
 41
0
  0
VERTEX
  8
0
 10
14.4703
 20
20.1285
 30
0.0
 40
0
 41
0
  0
VERTEX
  8
0
 10
14.5149
 20
20.1354
 30
0.0
 40
0
 41
0
  0
VERTEX
  8
0
 10
14.5506
 20
20.1451
 30
0.0
 40
0
 41
0
  0
VERTEX
  8
0
 10
14.5714
 20
20.1526
 30
0.0
 40
0
 41
0
  0
VERTEX
  8
0
 10
14.5781
 20
20.1557
 30
0.0
 40
0
 41
0
  0
VERTEX
  8
0
 10
14.5631
 20
20.2186
 30
0.0
 40
0
 41
0
  0
VERTEX
  8
0
 10
14.5549
 20
20.2151
 30
0.0
 40
0
 41
0
  0
VERTEX
  8
0
 10
14.5074
 20
20.2008
 30
0.0
 40
0
 41
0
  0
VERTEX
  8
0
 10
14.4488
 20
20.1936
 30
0.0
 40
0
 41
0
  0
VERTEX
  8
0
 10
14.4292
 20
20.1936
 30
0.0
 40
0
 41
0
  0
VERTEX
  8
0
 10
14.4135
 20
20.1936
 30
0.0
 40
0
 41
0
  0
VERTEX
  8
0
 10
14.3664
 20
20.2032
 30
0.0
 40
0
 41
0
  0
VERTEX
  8
0
 10
14.3139
 20
20.2331
 30
0.0
 40
0
 41
0
  0
VERTEX
  8
0
 10
14.2775
 20
20.2853
 30
0.0
 40
0
 41
0
  0
VERTEX
  8
0
 10
14.2635
 20
20.3425
 30
0.0
 40
0
 41
0
  0
VERTEX
  8
0
 10
14.2632
 20
20.3617
 30
0.0
 40
0
 41
0
  0
VERTEX
  8
0
 10
14.6031
 20
20.3617
 30
0.0
 40
0
 41
0
  0
SEQEND
 8
0
  0
POLYLINE
  8
0
 62
     0
 66
     1
 10
0
 20
0
 30
0.0
 70
     1
 40
0
 41
0
  0
VERTEX
  8
0
 10
14.2643
 20
20.4246
 30
0.0
 40
0
 41
0
  0
VERTEX
  8
0
 10
14.2657
 20
20.4368
 30
0.0
 40
0
 41
0
  0
VERTEX
  8
0
 10
14.2758
 20
20.4726
 30
0.0
 40
0
 41
0
  0
VERTEX
  8
0
 10
14.301
 20
20.5189
 30
0.0
 40
0
 41
0
  0
VERTEX
  8
0
 10
14.3415
 20
20.5539
 30
0.0
 40
0
 41
0
  0
VERTEX
  8
0
 10
14.3849
 20
20.5675
 30
0.0
 40
0
 41
0
  0
VERTEX
  8
0
 10
14.3993
 20
20.5675
 30
0.0
 40
0
 41
0
  0
VERTEX
  8
0
 10
14.4076
 20
20.5675
 30
0.0
 40
0
 41
0
  0
VERTEX
  8
0
 10
14.4329
 20
20.5637
 30
0.0
 40
0
 41
0
  0
VERTEX
  8
0
 10
14.4601
 20
20.5531
 30
0.0
 40
0
 41
0
  0
VERTEX
  8
0
 10
14.4815
 20
20.5371
 30
0.0
 40
0
 41
0
  0
VERTEX
  8
0
 10
14.4976
 20
20.5171
 30
0.0
 40
0
 41
0
  0
VERTEX
  8
0
 10
14.509
 20
20.4944
 30
0.0
 40
0
 41
0
  0
VERTEX
  8
0
 10
14.5164
 20
20.4706
 30
0.0
 40
0
 41
0
  0
VERTEX
  8
0
 10
14.5203
 20
20.4468
 30
0.0
 40
0
 41
0
  0
VERTEX
  8
0
 10
14.5213
 20
20.4301
 30
0.0
 40
0
 41
0
  0
VERTEX
  8
0
 10
14.5213
 20
20.4246
 30
0.0
 40
0
 41
0
  0
VERTEX
  8
0
 10
14.2643
 20
20.4246
 30
0.0
 40
0
 41
0
  0
SEQEND
 8
0
  0
POLYLINE
  8
0
 62
     0
 66
     1
 10
0
 20
0
 30
0.0
 70
     1
 40
0
 41
0
  0
VERTEX
  8
0
 10
15.0631
 20
20.1357
 30
0.0
 40
0
 41
0
  0
VERTEX
  8
0
 10
15.0615
 20
20.1439
 30
0.0
 40
0
 41
0
  0
VERTEX
  8
0
 10
15.0568
 20
20.1903
 30
0.0
 40
0
 41
0
  0
VERTEX
  8
0
 10
15.0551
 20
20.2363
 30
0.0
 40
0
 41
0
  0
VERTEX
  8
0
 10
15.0551
 20
20.2515
 30
0.0
 40
0
 41
0
  0
VERTEX
  8
0
 10
15.0551
 20
20.4325
 30
0.0
 40
0
 41
0
  0
VERTEX
  8
0
 10
15.0551
 20
20.4417
 30
0.0
 40
0
 41
0
  0
VERTEX
  8
0
 10
15.0533
 20
20.469
 30
0.0
 40
0
 41
0
  0
VERTEX
  8
0
 10
15.0472
 20
20.5044
 30
0.0
 40
0
 41
0
  0
VERTEX
  8
0
 10
15.036
 20
20.5378
 30
0.0
 40
0
 41
0
  0
VERTEX
  8
0
 10
15.0186
 20
20.5679
 30
0.0
 40
0
 41
0
  0
VERTEX
  8
0
 10
14.9944
 20
20.5935
 30
0.0
 40
0
 41
0
  0
VERTEX
  8
0
 10
14.9624
 20
20.6132
 30
0.0
 40
0
 41
0
  0
VERTEX
  8
0
 10
14.9215
 20
20.626
 30
0.0
 40
0
 41
0
  0
VERTEX
  8
0
 10
14.8838
 20
20.6304
 30
0.0
 40
0
 41
0
  0
VERTEX
  8
0
 10
14.8711
 20
20.6304
 30
0.0
 40
0
 41
0
  0
VERTEX
  8
0
 10
14.8493
 20
20.6304
 30
0.0
 40
0
 41
0
  0
VERTEX
  8
0
 10
14.7838
 20
20.6188
 30
0.0
 40
0
 41
0
  0
VERTEX
  8
0
 10
14.7221
 20
20.594
 30
0.0
 40
0
 41
0
  0
VERTEX
  8
0
 10
14.7121
 20
20.5875
 30
0.0
 40
0
 41
0
  0
VERTEX
  8
0
 10
14.7322
 20
20.5296
 30
0.0
 40
0
 41
0
  0
VERTEX
  8
0
 10
14.7407
 20
20.535
 30
0.0
 40
0
 41
0
  0
VERTEX
  8
0
 10
14.791
 20
20.5558
 30
0.0
 40
0
 41
0
  0
VERTEX
  8
0
 10
14.8412
 20
20.5656
 30
0.0
 40
0
 41
0
  0
VERTEX
  8
0
 10
14.8582
 20
20.5656
 30
0.0
 40
0
 41
0
  0
VERTEX
  8
0
 10
14.8664
 20
20.5656
 30
0.0
 40
0
 41
0
  0
VERTEX
  8
0
 10
14.8913
 20
20.5625
 30
0.0
 40
0
 41
0
  0
VERTEX
  8
0
 10
14.9171
 20
20.5538
 30
0.0
 40
0
 41
0
  0
VERTEX
  8
0
 10
14.9364
 20
20.5407
 30
0.0
 40
0
 41
0
  0
VERTEX
  8
0
 10
14.9503
 20
20.5246
 30
0.0
 40
0
 41
0
  0
VERTEX
  8
0
 10
14.9594
 20
20.5067
 30
0.0
 40
0
 41
0
  0
VERTEX
  8
0
 10
14.9649
 20
20.4879
 30
0.0
 40
0
 41
0
  0
VERTEX
  8
0
 10
14.9675
 20
20.4699
 30
0.0
 40
0
 41
0
  0
VERTEX
  8
0
 10
14.9682
 20
20.4576
 30
0.0
 40
0
 41
0
  0
VERTEX
  8
0
 10
14.9682
 20
20.4536
 30
0.0
 40
0
 41
0
  0
VERTEX
  8
0
 10
14.9682
 20
20.4436
 30
0.0
 40
0
 41
0
  0
VERTEX
  8
0
 10
14.9371
 20
20.4439
 30
0.0
 40
0
 41
0
  0
VERTEX
  8
0
 10
14.8438
 20
20.4325
 30
0.0
 40
0
 41
0
  0
VERTEX
  8
0
 10
14.7525
 20
20.3979
 30
0.0
 40
0
 41
0
  0
VERTEX
  8
0
 10
14.6963
 20
20.3414
 30
0.0
 40
0
 41
0
  0
VERTEX
  8
0
 10
14.6771
 20
20.2832
 30
0.0
 40
0
 41
0
  0
VERTEX
  8
0
 10
14.6771
 20
20.2638
 30
0.0
 40
0
 41
0
  0
VERTEX
  8
0
 10
14.6771
 20
20.251
 30
0.0
 40
0
 41
0
  0
VERTEX
  8
0
 10
14.6865
 20
20.2125
 30
0.0
 40
0
 41
0
  0
VERTEX
  8
0
 10
14.7144
 20
20.1679
 30
0.0
 40
0
 41
0
  0
VERTEX
  8
0
 10
14.7607
 20
20.1365
 30
0.0
 40
0
 41
0
  0
VERTEX
  8
0
 10
14.809
 20
20.1246
 30
0.0
 40
0
 41
0
  0
VERTEX
  8
0
 10
14.8251
 20
20.1246
 30
0.0
 40
0
 41
0
  0
VERTEX
  8
0
 10
14.8372
 20
20.1246
 30
0.0
 40
0
 41
0
  0
VERTEX
  8
0
 10
14.8735
 20
20.1306
 30
0.0
 40
0
 41
0
  0
VERTEX
  8
0
 10
14.9149
 20
20.1464
 30
0.0
 40
0
 41
0
  0
VERTEX
  8
0
 10
14.9482
 20
20.1694
 30
0.0
 40
0
 41
0
  0
VERTEX
  8
0
 10
14.9678
 20
20.1893
 30
0.0
 40
0
 41
0
  0
VERTEX
  8
0
 10
14.9732
 20
20.1967
 30
0.0
 40
0
 41
0
  0
VERTEX
  8
0
 10
14.9763
 20
20.1967
 30
0.0
 40
0
 41
0
  0
VERTEX
  8
0
 10
14.9832
 20
20.1357
 30
0.0
 40
0
 41
0
  0
VERTEX
  8
0
 10
15.0631
 20
20.1357
 30
0.0
 40
0
 41
0
  0
SEQEND
 8
0
  0
POLYLINE
  8
0
 62
     0
 66
     1
 10
0
 20
0
 30
0.0
 70
     1
 40
0
 41
0
  0
VERTEX
  8
0
 10
14.9701
 20
20.2986
 30
0.0
 40
0
 41
0
  0
VERTEX
  8
0
 10
14.9701
 20
20.2917
 30
0.0
 40
0
 41
0
  0
VERTEX
  8
0
 10
14.9658
 20
20.2729
 30
0.0
 40
0
 41
0
  0
VERTEX
  8
0
 10
14.9651
 20
20.2707
 30
0.0
 40
0
 41
0
  0
VERTEX
  8
0
 10
14.9625
 20
20.2628
 30
0.0
 40
0
 41
0
  0
VERTEX
  8
0
 10
14.9499
 20
20.2407
 30
0.0
 40
0
 41
0
  0
VERTEX
  8
0
 10
14.925
 20
20.2149
 30
0.0
 40
0
 41
0
  0
VERTEX
  8
0
 10
14.891
 20
20.1967
 30
0.0
 40
0
 41
0
  0
VERTEX
  8
0
 10
14.8589
 20
20.1897
 30
0.0
 40
0
 41
0
  0
VERTEX
  8
0
 10
14.8482
 20
20.1897
 30
0.0
 40
0
 41
0
  0
VERTEX
  8
0
 10
14.8401
 20
20.1897
 30
0.0
 40
0
 41
0
  0
VERTEX
  8
0
 10
14.8163
 20
20.1949
 30
0.0
 40
0
 41
0
  0
VERTEX
  8
0
 10
14.7899
 20
20.2103
 30
0.0
 40
0
 41
0
  0
VERTEX
  8
0
 10
14.7718
 20
20.2365
 30
0.0
 40
0
 41
0
  0
VERTEX
  8
0
 10
14.7653
 20
20.2644
 30
0.0
 40
0
 41
0
  0
VERTEX
  8
0
 10
14.7653
 20
20.2737
 30
0.0
 40
0
 41
0
  0
VERTEX
  8
0
 10
14.7653
 20
20.2817
 30
0.0
 40
0
 41
0
  0
VERTEX
  8
0
 10
14.7701
 20
20.3056
 30
0.0
 40
0
 41
0
  0
VERTEX
  8
0
 10
14.7838
 20
20.3307
 30
0.0
 40
0
 41
0
  0
VERTEX
  8
0
 10
14.8047
 20
20.35
 30
0.0
 40
0
 41
0
  0
VERTEX
  8
0
 10
14.8317
 20
20.3642
 30
0.0
 40
0
 41
0
  0
VERTEX
  8
0
 10
14.8631
 20
20.3739
 30
0.0
 40
0
 41
0
  0
VERTEX
  8
0
 10
14.8976
 20
20.3797
 30
0.0
 40
0
 41
0
  0
VERTEX
  8
0
 10
14.9337
 20
20.3825
 30
0.0
 40
0
 41
0
  0
VERTEX
  8
0
 10
14.961
 20
20.3829
 30
0.0
 40
0
 41
0
  0
VERTEX
  8
0
 10
14.9701
 20
20.3826
 30
0.0
 40
0
 41
0
  0
VERTEX
  8
0
 10
14.9701
 20
20.2986
 30
0.0
 40
0
 41
0
  0
SEQEND
 8
0
  0
POLYLINE
  8
0
 62
     0
 66
     1
 10
0
 20
0
 30
0.0
 70
     1
 40
0
 41
0
  0
VERTEX
  8
0
 10
15.1971
 20
20.1357
 30
0.0
 40
0
 41
0
  0
VERTEX
  8
0
 10
15.2853
 20
20.1357
 30
0.0
 40
0
 41
0
  0
VERTEX
  8
0
 10
15.2853
 20
20.8456
 30
0.0
 40
0
 41
0
  0
VERTEX
  8
0
 10
15.1971
 20
20.8456
 30
0.0
 40
0
 41
0
  0
VERTEX
  8
0
 10
15.1971
 20
20.1357
 30
0.0
 40
0
 41
0
  0
SEQEND
 8
0
  0
POLYLINE
  8
0
 62
     0
 66
     1
 10
0
 20
0
 30
0.0
 70
     1
 40
0
 41
0
  0
VERTEX
  8
0
 10
16.1279
 20
20.4725
 30
0.0
 40
0
 41
0
  0
VERTEX
  8
0
 10
16.1279
 20
20.5326
 30
0.0
 40
0
 41
0
  0
VERTEX
  8
0
 10
15.6121
 20
20.5326
 30
0.0
 40
0
 41
0
  0
VERTEX
  8
0
 10
15.6121
 20
20.4725
 30
0.0
 40
0
 41
0
  0
VERTEX
  8
0
 10
16.1279
 20
20.4725
 30
0.0
 40
0
 41
0
  0
SEQEND
 8
0
  0
POLYLINE
  8
0
 62
     0
 66
     1
 10
0
 20
0
 30
0.0
 70
     1
 40
0
 41
0
  0
VERTEX
  8
0
 10
16.1279
 20
20.2768
 30
0.0
 40
0
 41
0
  0
VERTEX
  8
0
 10
16.1279
 20
20.3367
 30
0.0
 40
0
 41
0
  0
VERTEX
  8
0
 10
15.6121
 20
20.3367
 30
0.0
 40
0
 41
0
  0
VERTEX
  8
0
 10
15.6121
 20
20.2768
 30
0.0
 40
0
 41
0
  0
VERTEX
  8
0
 10
16.1279
 20
20.2768
 30
0.0
 40
0
 41
0
  0
SEQEND
 8
0
  0
POLYLINE
  8
0
 62
     0
 66
     1
 10
0
 20
0
 30
0.0
 70
     1
 40
0
 41
0
  0
VERTEX
  8
0
 10
16.8399
 20
20.1357
 30
0.0
 40
0
 41
0
  0
VERTEX
  8
0
 10
16.8399
 20
20.2086
 30
0.0
 40
0
 41
0
  0
VERTEX
  8
0
 10
16.5481
 20
20.2086
 30
0.0
 40
0
 41
0
  0
VERTEX
  8
0
 10
16.5481
 20
20.2108
 30
0.0
 40
0
 41
0
  0
VERTEX
  8
0
 10
16.5999
 20
20.2588
 30
0.0
 40
0
 41
0
  0
VERTEX
  8
0
 10
16.6235
 20
20.2815
 30
0.0
 40
0
 41
0
  0
VERTEX
  8
0
 10
16.6928
 20
20.3521
 30
0.0
 40
0
 41
0
  0
VERTEX
  8
0
 10
16.7633
 20
20.4376
 30
0.0
 40
0
 41
0
  0
VERTEX
  8
0
 10
16.8081
 20
20.5211
 30
0.0
 40
0
 41
0
  0
VERTEX
  8
0
 10
16.8239
 20
20.5858
 30
0.0
 40
0
 41
0
  0
VERTEX
  8
0
 10
16.8239
 20
20.6075
 30
0.0
 40
0
 41
0
  0
VERTEX
  8
0
 10
16.8239
 20
20.6163
 30
0.0
 40
0
 41
0
  0
VERTEX
  8
0
 10
16.821
 20
20.6424
 30
0.0
 40
0
 41
0
  0
VERTEX
  8
0
 10
16.8125
 20
20.6764
 30
0.0
 40
0
 41
0
  0
VERTEX
  8
0
 10
16.7978
 20
20.7082
 30
0.0
 40
0
 41
0
  0
VERTEX
  8
0
 10
16.7769
 20
20.7369
 30
0.0
 40
0
 41
0
  0
VERTEX
  8
0
 10
16.7494
 20
20.7613
 30
0.0
 40
0
 41
0
  0
VERTEX
  8
0
 10
16.7151
 20
20.78
 30
0.0
 40
0
 41
0
  0
VERTEX
  8
0
 10
16.6738
 20
20.7922
 30
0.0
 40
0
 41
0
  0
VERTEX
  8
0
 10
16.6372
 20
20.7965
 30
0.0
 40
0
 41
0
  0
VERTEX
  8
0
 10
16.625
 20
20.7965
 30
0.0
 40
0
 41
0
  0
VERTEX
  8
0
 10
16.6115
 20
20.7965
 30
0.0
 40
0
 41
0
  0
VERTEX
  8
0
 10
16.571
 20
20.7915
 30
0.0
 40
0
 41
0
  0
VERTEX
  8
0
 10
16.5217
 20
20.7778
 30
0.0
 40
0
 41
0
  0
VERTEX
  8
0
 10
16.4782
 20
20.7569
 30
0.0
 40
0
 41
0
  0
VERTEX
  8
0
 10
16.4497
 20
20.7379
 30
0.0
 40
0
 41
0
  0
VERTEX
  8
0
 10
16.441
 20
20.7306
 30
0.0
 40
0
 41
0
  0
VERTEX
  8
0
 10
16.469
 20
20.6685
 30
0.0
 40
0
 41
0
  0
VERTEX
  8
0
 10
16.4751
 20
20.6736
 30
0.0
 40
0
 41
0
  0
VERTEX
  8
0
 10
16.4949
 20
20.6878
 30
0.0
 40
0
 41
0
  0
VERTEX
  8
0
 10
16.5271
 20
20.7054
 30
0.0
 40
0
 41
0
  0
VERTEX
  8
0
 10
16.5647
 20
20.7185
 30
0.0
 40
0
 41
0
  0
VERTEX
  8
0
 10
16.5965
 20
20.7236
 30
0.0
 40
0
 41
0
  0
VERTEX
  8
0
 10
16.6071
 20
20.7236
 30
0.0
 40
0
 41
0
  0
VERTEX
  8
0
 10
16.6222
 20
20.7236
 30
0.0
 40
0
 41
0
  0
VERTEX
  8
0
 10
16.6681
 20
20.7131
 30
0.0
 40
0
 41
0
  0
VERTEX
  8
0
 10
16.7078
 20
20.6849
 30
0.0
 40
0
 41
0
  0
VERTEX
  8
0
 10
16.7294
 20
20.6443
 30
0.0
 40
0
 41
0
  0
VERTEX
  8
0
 10
16.736
 20
20.6086
 30
0.0
 40
0
 41
0
  0
VERTEX
  8
0
 10
16.736
 20
20.5967
 30
0.0
 40
0
 41
0
  0
VERTEX
  8
0
 10
16.7357
 20
20.5786
 30
0.0
 40
0
 41
0
  0
VERTEX
  8
0
 10
16.721
 20
20.5243
 30
0.0
 40
0
 41
0
  0
VERTEX
  8
0
 10
16.6768
 20
20.449
 30
0.0
 40
0
 41
0
  0
VERTEX
  8
0
 10
16.6017
 20
20.3626
 30
0.0
 40
0
 41
0
  0
VERTEX
  8
0
 10
16.5214
 20
20.2826
 30
0.0
 40
0
 41
0
  0
VERTEX
  8
0
 10
16.494
 20
20.2565
 30
0.0
 40
0
 41
0
  0
VERTEX
  8
0
 10
16.425
 20
20.1897
 30
0.0
 40
0
 41
0
  0
VERTEX
  8
0
 10
16.425
 20
20.1357
 30
0.0
 40
0
 41
0
  0
VERTEX
  8
0
 10
16.8399
 20
20.1357
 30
0.0
 40
0
 41
0
  0
SEQEND
 8
0
  0
POLYLINE
  8
0
 62
     0
 66
     1
 10
0
 20
0
 30
0.0
 70
     1
 40
0
 41
0
  0
VERTEX
  8
0
 10
17.1481
 20
20.1246
 30
0.0
 40
0
 41
0
  0
VERTEX
  8
0
 10
17.1592
 20
20.1246
 30
0.0
 40
0
 41
0
  0
VERTEX
  8
0
 10
17.1931
 20
20.1282
 30
0.0
 40
0
 41
0
  0
VERTEX
  8
0
 10
17.2347
 20
20.1383
 30
0.0
 40
0
 41
0
  0
VERTEX
  8
0
 10
17.2724
 20
20.1546
 30
0.0
 40
0
 41
0
  0
VERTEX
  8
0
 10
17.3049
 20
20.1768
 30
0.0
 40
0
 41
0
  0
VERTEX
  8
0
 10
17.3317
 20
20.2042
 30
0.0
 40
0
 41
0
  0
VERTEX
  8
0
 10
17.3518
 20
20.2364
 30
0.0
 40
0
 41
0
  0
VERTEX
  8
0
 10
17.3644
 20
20.2731
 30
0.0
 40
0
 41
0
  0
VERTEX
  8
0
 10
17.3689
 20
20.3035
 30
0.0
 40
0
 41
0
  0
VERTEX
  8
0
 10
17.3689
 20
20.3136
 30
0.0
 40
0
 41
0
  0
VERTEX
  8
0
 10
17.3689
 20
20.3274
 30
0.0
 40
0
 41
0
  0
VERTEX
  8
0
 10
17.3599
 20
20.3688
 30
0.0
 40
0
 41
0
  0
VERTEX
  8
0
 10
17.3338
 20
20.4153
 30
0.0
 40
0
 41
0
  0
VERTEX
  8
0
 10
17.2924
 20
20.4531
 30
0.0
 40
0
 41
0
  0
VERTEX
  8
0
 10
17.2521
 20
20.476
 30
0.0
 40
0
 41
0
  0
VERTEX
  8
0
 10
17.2379
 20
20.4817
 30
0.0
 40
0
 41
0
  0
VERTEX
  8
0
 10
17.2379
 20
20.4846
 30
0.0
 40
0
 41
0
  0
VERTEX
  8
0
 10
17.2512
 20
20.491
 30
0.0
 40
0
 41
0
  0
VERTEX
  8
0
 10
17.2883
 20
20.5167
 30
0.0
 40
0
 41
0
  0
VERTEX
  8
0
 10
17.3214
 20
20.5543
 30
0.0
 40
0
 41
0
  0
VERTEX
  8
0
 10
17.3393
 20
20.595
 30
0.0
 40
0
 41
0
  0
VERTEX
  8
0
 10
17.3449
 20
20.6262
 30
0.0
 40
0
 41
0
  0
VERTEX
  8
0
 10
17.3449
 20
20.6365
 30
0.0
 40
0
 41
0
  0
VERTEX
  8
0
 10
17.3449
 20
20.6514
 30
0.0
 40
0
 41
0
  0
VERTEX
  8
0
 10
17.3331
 20
20.6957
 30
0.0
 40
0
 41
0
  0
VERTEX
  8
0
 10
17.2976
 20
20.7469
 30
0.0
 40
0
 41
0
  0
VERTEX
  8
0
 10
17.2386
 20
20.7829
 30
0.0
 40
0
 41
0
  0
VERTEX
  8
0
 10
17.1767
 20
20.7965
 30
0.0
 40
0
 41
0
  0
VERTEX
  8
0
 10
17.156
 20
20.7965
 30
0.0
 40
0
 41
0
  0
VERTEX
  8
0
 10
17.1457
 20
20.7965
 30
0.0
 40
0
 41
0
  0
VERTEX
  8
0
 10
17.1146
 20
20.7933
 30
0.0
 40
0
 41
0
  0
VERTEX
  8
0
 10
17.0764
 20
20.784
 30
0.0
 40
0
 41
0
  0
VERTEX
  8
0
 10
17.0422
 20
20.769
 30
0.0
 40
0
 41
0
  0
VERTEX
  8
0
 10
17.0128
 20
20.7488
 30
0.0
 40
0
 41
0
  0
VERTEX
  8
0
 10
16.9886
 20
20.7236
 30
0.0
 40
0
 41
0
  0
VERTEX
  8
0
 10
16.9704
 20
20.694
 30
0.0
 40
0
 41
0
  0
VERTEX
  8
0
 10
16.959
 20
20.6606
 30
0.0
 40
0
 41
0
  0
VERTEX
  8
0
 10
16.9551
 20
20.6328
 30
0.0
 40
0
 41
0
  0
VERTEX
  8
0
 10
16.9551
 20
20.6235
 30
0.0
 40
0
 41
0
  0
VERTEX
  8
0
 10
16.9551
 20
20.6132
 30
0.0
 40
0
 41
0
  0
VERTEX
  8
0
 10
16.961
 20
20.5819
 30
0.0
 40
0
 41
0
  0
VERTEX
  8
0
 10
16.9794
 20
20.5424
 30
0.0
 40
0
 41
0
  0
VERTEX
  8
0
 10
17.0114
 20
20.5069
 30
0.0
 40
0
 41
0
  0
VERTEX
  8
0
 10
17.0456
 20
20.4835
 30
0.0
 40
0
 41
0
  0
VERTEX
  8
0
 10
17.0579
 20
20.4776
 30
0.0
 40
0
 41
0
  0
VERTEX
  8
0
 10
17.059
 20
20.4747
 30
0.0
 40
0
 41
0
  0
VERTEX
  8
0
 10
17.0449
 20
20.4688
 30
0.0
 40
0
 41
0
  0
VERTEX
  8
0
 10
17.005
 20
20.4447
 30
0.0
 40
0
 41
0
  0
VERTEX
  8
0
 10
16.9644
 20
20.4057
 30
0.0
 40
0
 41
0
  0
VERTEX
  8
0
 10
16.9387
 20
20.3576
 30
0.0
 40
0
 41
0
  0
VERTEX
  8
0
 10
16.9299
 20
20.3149
 30
0.0
 40
0
 41
0
  0
VERTEX
  8
0
 10
16.9299
 20
20.3006
 30
0.0
 40
0
 41
0
  0
VERTEX
  8
0
 10
16.9299
 20
20.2919
 30
0.0
 40
0
 41
0
  0
VERTEX
  8
0
 10
16.9336
 20
20.2658
 30
0.0
 40
0
 41
0
  0
VERTEX
  8
0
 10
16.9449
 20
20.2331
 30
0.0
 40
0
 41
0
  0
VERTEX
  8
0
 10
16.9631
 20
20.2032
 30
0.0
 40
0
 41
0
  0
VERTEX
  8
0
 10
16.9879
 20
20.1769
 30
0.0
 40
0
 41
0
  0
VERTEX
  8
0
 10
17.0192
 20
20.1553
 30
0.0
 40
0
 41
0
  0
VERTEX
  8
0
 10
17.0565
 20
20.1388
 30
0.0
 40
0
 41
0
  0
VERTEX
  8
0
 10
17.0996
 20
20.1283
 30
0.0
 40
0
 41
0
  0
VERTEX
  8
0
 10
17.1358
 20
20.1246
 30
0.0
 40
0
 41
0
  0
VERTEX
  8
0
 10
17.1481
 20
20.1246
 30
0.0
 40
0
 41
0
  0
SEQEND
 8
0
  0
POLYLINE
  8
0
 62
     0
 66
     1
 10
0
 20
0
 30
0.0
 70
     1
 40
0
 41
0
  0
VERTEX
  8
0
 10
17.15
 20
20.1886
 30
0.0
 40
0
 41
0
  0
VERTEX
  8
0
 10
17.136
 20
20.1886
 30
0.0
 40
0
 41
0
  0
VERTEX
  8
0
 10
17.0943
 20
20.1988
 30
0.0
 40
0
 41
0
  0
VERTEX
  8
0
 10
17.0528
 20
20.2258
 30
0.0
 40
0
 41
0
  0
VERTEX
  8
0
 10
17.0272
 20
20.2654
 30
0.0
 40
0
 41
0
  0
VERTEX
  8
0
 10
17.0194
 20
20.3008
 30
0.0
 40
0
 41
0
  0
VERTEX
  8
0
 10
17.02
 20
20.3125
 30
0.0
 40
0
 41
0
  0
VERTEX
  8
0
 10
17.02
 20
20.3236
 30
0.0
 40
0
 41
0
  0
VERTEX
  8
0
 10
17.0275
 20
20.3567
 30
0.0
 40
0
 41
0
  0
VERTEX
  8
0
 10
17.05
 20
20.3946
 30
0.0
 40
0
 41
0
  0
VERTEX
  8
0
 10
17.0865
 20
20.4251
 30
0.0
 40
0
 41
0
  0
VERTEX
  8
0
 10
17.1239
 20
20.4429
 30
0.0
 40
0
 41
0
  0
VERTEX
  8
0
 10
17.1369
 20
20.4467
 30
0.0
 40
0
 41
0
  0
VERTEX
  8
0
 10
17.1521
 20
20.4424
 30
0.0
 40
0
 41
0
  0
VERTEX
  8
0
 10
17.1964
 20
20.4251
 30
0.0
 40
0
 41
0
  0
VERTEX
  8
0
 10
17.2414
 20
20.3958
 30
0.0
 40
0
 41
0
  0
VERTEX
  8
0
 10
17.2699
 20
20.3567
 30
0.0
 40
0
 41
0
  0
VERTEX
  8
0
 10
17.28
 20
20.3178
 30
0.0
 40
0
 41
0
  0
VERTEX
  8
0
 10
17.28
 20
20.3047
 30
0.0
 40
0
 41
0
  0
VERTEX
  8
0
 10
17.28
 20
20.2932
 30
0.0
 40
0
 41
0
  0
VERTEX
  8
0
 10
17.2707
 20
20.2583
 30
0.0
 40
0
 41
0
  0
VERTEX
  8
0
 10
17.2446
 20
20.2215
 30
0.0
 40
0
 41
0
  0
VERTEX
  8
0
 10
17.2036
 20
20.1974
 30
0.0
 40
0
 41
0
  0
VERTEX
  8
0
 10
17.1633
 20
20.1886
 30
0.0
 40
0
 41
0
  0
VERTEX
  8
0
 10
17.15
 20
20.1886
 30
0.0
 40
0
 41
0
  0
SEQEND
 8
0
  0
POLYLINE
  8
0
 62
     0
 66
     1
 10
0
 20
0
 30
0.0
 70
     1
 40
0
 41
0
  0
VERTEX
  8
0
 10
17.1511
 20
20.7336
 30
0.0
 40
0
 41
0
  0
VERTEX
  8
0
 10
17.1636
 20
20.7336
 30
0.0
 40
0
 41
0
  0
VERTEX
  8
0
 10
17.2014
 20
20.7243
 30
0.0
 40
0
 41
0
  0
VERTEX
  8
0
 10
17.2354
 20
20.7001
 30
0.0
 40
0
 41
0
  0
VERTEX
  8
0
 10
17.2547
 20
20.6661
 30
0.0
 40
0
 41
0
  0
VERTEX
  8
0
 10
17.2608
 20
20.6374
 30
0.0
 40
0
 41
0
  0
VERTEX
  8
0
 10
17.2608
 20
20.6276
 30
0.0
 40
0
 41
0
  0
VERTEX
  8
0
 10
17.2608
 20
20.6175
 30
0.0
 40
0
 41
0
  0
VERTEX
  8
0
 10
17.2532
 20
20.5869
 30
0.0
 40
0
 41
0
  0
VERTEX
  8
0
 10
17.2324
 20
20.5536
 30
0.0
 40
0
 41
0
  0
VERTEX
  8
0
 10
17.201
 20
20.5278
 30
0.0
 40
0
 41
0
  0
VERTEX
  8
0
 10
17.1719
 20
20.5131
 30
0.0
 40
0
 41
0
  0
VERTEX
  8
0
 10
17.1619
 20
20.5096
 30
0.0
 40
0
 41
0
  0
VERTEX
  8
0
 10
17.1489
 20
20.5131
 30
0.0
 40
0
 41
0
  0
VERTEX
  8
0
 10
17.1108
 20
20.5276
 30
0.0
 40
0
 41
0
  0
VERTEX
  8
0
 10
17.0718
 20
20.5526
 30
0.0
 40
0
 41
0
  0
VERTEX
  8
0
 10
17.0468
 20
20.5862
 30
0.0
 40
0
 41
0
  0
VERTEX
  8
0
 10
17.0379
 20
20.6188
 30
0.0
 40
0
 41
0
  0
VERTEX
  8
0
 10
17.0379
 20
20.6296
 30
0.0
 40
0
 41
0
  0
VERTEX
  8
0
 10
17.0379
 20
20.6396
 30
0.0
 40
0
 41
0
  0
VERTEX
  8
0
 10
17.0454
 20
20.6694
 30
0.0
 40
0
 41
0
  0
VERTEX
  8
0
 10
17.0671
 20
20.7026
 30
0.0
 40
0
 41
0
  0
VERTEX
  8
0
 10
17.1025
 20
20.7251
 30
0.0
 40
0
 41
0
  0
VERTEX
  8
0
 10
17.1389
 20
20.7336
 30
0.0
 40
0
 41
0
  0
VERTEX
  8
0
 10
17.1511
 20
20.7336
 30
0.0
 40
0
 41
0
  0
SEQEND
 8
0
  0
POLYLINE
  8
0
 62
     0
 66
     1
 10
0
 20
0
 30
0.0
 70
     1
 40
0
 41
0
  0
VERTEX
  8
0
 10
17.5168
 20
20.1246
 30
0.0
 40
0
 41
0
  0
VERTEX
  8
0
 10
17.5231
 20
20.1246
 30
0.0
 40
0
 41
0
  0
VERTEX
  8
0
 10
17.5419
 20
20.1294
 30
0.0
 40
0
 41
0
  0
VERTEX
  8
0
 10
17.5608
 20
20.1426
 30
0.0
 40
0
 41
0
  0
VERTEX
  8
0
 10
17.5728
 20
20.1626
 30
0.0
 40
0
 41
0
  0
VERTEX
  8
0
 10
17.5769
 20
20.1815
 30
0.0
 40
0
 41
0
  0
VERTEX
  8
0
 10
17.5769
 20
20.1878
 30
0.0
 40
0
 41
0
  0
VERTEX
  8
0
 10
17.5769
 20
20.1942
 30
0.0
 40
0
 41
0
  0
VERTEX
  8
0
 10
17.5726
 20
20.2132
 30
0.0
 40
0
 41
0
  0
VERTEX
  8
0
 10
17.5606
 20
20.2331
 30
0.0
 40
0
 41
0
  0
VERTEX
  8
0
 10
17.5419
 20
20.2461
 30
0.0
 40
0
 41
0
  0
VERTEX
  8
0
 10
17.5239
 20
20.2507
 30
0.0
 40
0
 41
0
  0
VERTEX
  8
0
 10
17.5179
 20
20.2507
 30
0.0
 40
0
 41
0
  0
VERTEX
  8
0
 10
17.5119
 20
20.2507
 30
0.0
 40
0
 41
0
  0
VERTEX
  8
0
 10
17.4938
 20
20.2461
 30
0.0
 40
0
 41
0
  0
VERTEX
  8
0
 10
17.4749
 20
20.2331
 30
0.0
 40
0
 41
0
  0
VERTEX
  8
0
 10
17.4625
 20
20.2132
 30
0.0
 40
0
 41
0
  0
VERTEX
  8
0
 10
17.4581
 20
20.1942
 30
0.0
 40
0
 41
0
  0
VERTEX
  8
0
 10
17.4581
 20
20.1878
 30
0.0
 40
0
 41
0
  0
VERTEX
  8
0
 10
17.4581
 20
20.1815
 30
0.0
 40
0
 41
0
  0
VERTEX
  8
0
 10
17.4624
 20
20.1626
 30
0.0
 40
0
 41
0
  0
VERTEX
  8
0
 10
17.4743
 20
20.1426
 30
0.0
 40
0
 41
0
  0
VERTEX
  8
0
 10
17.4929
 20
20.1294
 30
0.0
 40
0
 41
0
  0
VERTEX
  8
0
 10
17.5108
 20
20.1246
 30
0.0
 40
0
 41
0
  0
VERTEX
  8
0
 10
17.5168
 20
20.1246
 30
0.0
 40
0
 41
0
  0
SEQEND
 8
0
  0
POLYLINE
  8
0
 62
     0
 66
     1
 10
0
 20
0
 30
0.0
 70
     1
 40
0
 41
0
  0
VERTEX
  8
0
 10
18.0728
 20
20.1357
 30
0.0
 40
0
 41
0
  0
VERTEX
  8
0
 10
18.0728
 20
20.2086
 30
0.0
 40
0
 41
0
  0
VERTEX
  8
0
 10
17.781
 20
20.2086
 30
0.0
 40
0
 41
0
  0
VERTEX
  8
0
 10
17.781
 20
20.2108
 30
0.0
 40
0
 41
0
  0
VERTEX
  8
0
 10
17.8328
 20
20.2588
 30
0.0
 40
0
 41
0
  0
VERTEX
  8
0
 10
17.8564
 20
20.2815
 30
0.0
 40
0
 41
0
  0
VERTEX
  8
0
 10
17.9256
 20
20.3521
 30
0.0
 40
0
 41
0
  0
VERTEX
  8
0
 10
17.9962
 20
20.4376
 30
0.0
 40
0
 41
0
  0
VERTEX
  8
0
 10
18.041
 20
20.5211
 30
0.0
 40
0
 41
0
  0
VERTEX
  8
0
 10
18.0568
 20
20.5858
 30
0.0
 40
0
 41
0
  0
VERTEX
  8
0
 10
18.0568
 20
20.6075
 30
0.0
 40
0
 41
0
  0
VERTEX
  8
0
 10
18.0568
 20
20.6163
 30
0.0
 40
0
 41
0
  0
VERTEX
  8
0
 10
18.0539
 20
20.6424
 30
0.0
 40
0
 41
0
  0
VERTEX
  8
0
 10
18.0454
 20
20.6764
 30
0.0
 40
0
 41
0
  0
VERTEX
  8
0
 10
18.0307
 20
20.7082
 30
0.0
 40
0
 41
0
  0
VERTEX
  8
0
 10
18.0099
 20
20.7369
 30
0.0
 40
0
 41
0
  0
VERTEX
  8
0
 10
17.9824
 20
20.7613
 30
0.0
 40
0
 41
0
  0
VERTEX
  8
0
 10
17.9481
 20
20.78
 30
0.0
 40
0
 41
0
  0
VERTEX
  8
0
 10
17.9067
 20
20.7922
 30
0.0
 40
0
 41
0
  0
VERTEX
  8
0
 10
17.8701
 20
20.7965
 30
0.0
 40
0
 41
0
  0
VERTEX
  8
0
 10
17.8579
 20
20.7965
 30
0.0
 40
0
 41
0
  0
VERTEX
  8
0
 10
17.8444
 20
20.7965
 30
0.0
 40
0
 41
0
  0
VERTEX
  8
0
 10
17.8039
 20
20.7915
 30
0.0
 40
0
 41
0
  0
VERTEX
  8
0
 10
17.7546
 20
20.7778
 30
0.0
 40
0
 41
0
  0
VERTEX
  8
0
 10
17.7111
 20
20.7569
 30
0.0
 40
0
 41
0
  0
VERTEX
  8
0
 10
17.6825
 20
20.7379
 30
0.0
 40
0
 41
0
  0
VERTEX
  8
0
 10
17.6739
 20
20.7306
 30
0.0
 40
0
 41
0
  0
VERTEX
  8
0
 10
17.7019
 20
20.6685
 30
0.0
 40
0
 41
0
  0
VERTEX
  8
0
 10
17.7081
 20
20.6736
 30
0.0
 40
0
 41
0
  0
VERTEX
  8
0
 10
17.7278
 20
20.6878
 30
0.0
 40
0
 41
0
  0
VERTEX
  8
0
 10
17.76
 20
20.7054
 30
0.0
 40
0
 41
0
  0
VERTEX
  8
0
 10
17.7976
 20
20.7185
 30
0.0
 40
0
 41
0
  0
VERTEX
  8
0
 10
17.8293
 20
20.7236
 30
0.0
 40
0
 41
0
  0
VERTEX
  8
0
 10
17.84
 20
20.7236
 30
0.0
 40
0
 41
0
  0
VERTEX
  8
0
 10
17.8551
 20
20.7236
 30
0.0
 40
0
 41
0
  0
VERTEX
  8
0
 10
17.901
 20
20.7131
 30
0.0
 40
0
 41
0
  0
VERTEX
  8
0
 10
17.9407
 20
20.6849
 30
0.0
 40
0
 41
0
  0
VERTEX
  8
0
 10
17.9624
 20
20.6443
 30
0.0
 40
0
 41
0
  0
VERTEX
  8
0
 10
17.9689
 20
20.6086
 30
0.0
 40
0
 41
0
  0
VERTEX
  8
0
 10
17.9689
 20
20.5967
 30
0.0
 40
0
 41
0
  0
VERTEX
  8
0
 10
17.9686
 20
20.5786
 30
0.0
 40
0
 41
0
  0
VERTEX
  8
0
 10
17.9539
 20
20.5243
 30
0.0
 40
0
 41
0
  0
VERTEX
  8
0
 10
17.9097
 20
20.449
 30
0.0
 40
0
 41
0
  0
VERTEX
  8
0
 10
17.8346
 20
20.3626
 30
0.0
 40
0
 41
0
  0
VERTEX
  8
0
 10
17.7542
 20
20.2826
 30
0.0
 40
0
 41
0
  0
VERTEX
  8
0
 10
17.7269
 20
20.2565
 30
0.0
 40
0
 41
0
  0
VERTEX
  8
0
 10
17.6579
 20
20.1897
 30
0.0
 40
0
 41
0
  0
VERTEX
  8
0
 10
17.6579
 20
20.1357
 30
0.0
 40
0
 41
0
  0
VERTEX
  8
0
 10
18.0728
 20
20.1357
 30
0.0
 40
0
 41
0
  0
SEQEND
 8
0
  0
POLYLINE
  8
0
 62
     0
 66
     1
 10
0
 20
0
 30
0.0
 70
     1
 40
0
 41
0
  0
VERTEX
  8
0
 10
18.5589
 20
20.7854
 30
0.0
 40
0
 41
0
  0
VERTEX
  8
0
 10
18.2479
 20
20.7854
 30
0.0
 40
0
 41
0
  0
VERTEX
  8
0
 10
18.206
 20
20.4736
 30
0.0
 40
0
 41
0
  0
VERTEX
  8
0
 10
18.2119
 20
20.4743
 30
0.0
 40
0
 41
0
  0
VERTEX
  8
0
 10
18.246
 20
20.4782
 30
0.0
 40
0
 41
0
  0
VERTEX
  8
0
 10
18.2833
 20
20.4806
 30
0.0
 40
0
 41
0
  0
VERTEX
  8
0
 10
18.2958
 20
20.4806
 30
0.0
 40
0
 41
0
  0
VERTEX
  8
0
 10
18.3168
 20
20.4806
 30
0.0
 40
0
 41
0
  0
VERTEX
  8
0
 10
18.3797
 20
20.4699
 30
0.0
 40
0
 41
0
  0
VERTEX
  8
0
 10
18.4378
 20
20.4401
 30
0.0
 40
0
 41
0
  0
VERTEX
  8
0
 10
18.4715
 20
20.3946
 30
0.0
 40
0
 41
0
  0
VERTEX
  8
0
 10
18.4826
 20
20.3513
 30
0.0
 40
0
 41
0
  0
VERTEX
  8
0
 10
18.4829
 20
20.3367
 30
0.0
 40
0
 41
0
  0
VERTEX
  8
0
 10
18.4829
 20
20.3219
 30
0.0
 40
0
 41
0
  0
VERTEX
  8
0
 10
18.4706
 20
20.2779
 30
0.0
 40
0
 41
0
  0
VERTEX
  8
0
 10
18.4369
 20
20.2335
 30
0.0
 40
0
 41
0
  0
VERTEX
  8
0
 10
18.3879
 20
20.2054
 30
0.0
 40
0
 41
0
  0
VERTEX
  8
0
 10
18.3436
 20
20.1956
 30
0.0
 40
0
 41
0
  0
VERTEX
  8
0
 10
18.3289
 20
20.1956
 30
0.0
 40
0
 41
0
  0
VERTEX
  8
0
 10
18.3181
 20
20.1956
 30
0.0
 40
0
 41
0
  0
VERTEX
  8
0
 10
18.286
 20
20.199
 30
0.0
 40
0
 41
0
  0
VERTEX
  8
0
 10
18.2474
 20
20.2076
 30
0.0
 40
0
 41
0
  0
VERTEX
  8
0
 10
18.2147
 20
20.2193
 30
0.0
 40
0
 41
0
  0
VERTEX
  8
0
 10
18.1958
 20
20.2282
 30
0.0
 40
0
 41
0
  0
VERTEX
  8
0
 10
18.19
 20
20.2317
 30
0.0
 40
0
 41
0
  0
VERTEX
  8
0
 10
18.1678
 20
20.1647
 30
0.0
 40
0
 41
0
  0
VERTEX
  8
0
 10
18.1744
 20
20.1604
 30
0.0
 40
0
 41
0
  0
VERTEX
  8
0
 10
18.1963
 20
20.15
 30
0.0
 40
0
 41
0
  0
VERTEX
  8
0
 10
18.2339
 20
20.1372
 30
0.0
 40
0
 41
0
  0
VERTEX
  8
0
 10
18.279
 20
20.1281
 30
0.0
 40
0
 41
0
  0
VERTEX
  8
0
 10
18.3172
 20
20.1246
 30
0.0
 40
0
 41
0
  0
VERTEX
  8
0
 10
18.3299
 20
20.1246
 30
0.0
 40
0
 41
0
  0
VERTEX
  8
0
 10
18.3542
 20
20.1246
 30
0.0
 40
0
 41
0
  0
VERTEX
  8
0
 10
18.4271
 20
20.1415
 30
0.0
 40
0
 41
0
  0
VERTEX
  8
0
 10
18.5038
 20
20.1881
 30
0.0
 40
0
 41
0
  0
VERTEX
  8
0
 10
18.5539
 20
20.2585
 30
0.0
 40
0
 41
0
  0
VERTEX
  8
0
 10
18.5719
 20
20.3246
 30
0.0
 40
0
 41
0
  0
VERTEX
  8
0
 10
18.5719
 20
20.3467
 30
0.0
 40
0
 41
0
  0
VERTEX
  8
0
 10
18.5719
 20
20.3608
 30
0.0
 40
0
 41
0
  0
VERTEX
  8
0
 10
18.5644
 20
20.4033
 30
0.0
 40
0
 41
0
  0
VERTEX
  8
0
 10
18.5444
 20
20.45
 30
0.0
 40
0
 41
0
  0
VERTEX
  8
0
 10
18.5149
 20
20.4868
 30
0.0
 40
0
 41
0
  0
VERTEX
  8
0
 10
18.4885
 20
20.5081
 30
0.0
 40
0
 41
0
  0
VERTEX
  8
0
 10
18.4787
 20
20.5135
 30
0.0
 40
0
 41
0
  0
VERTEX
  8
0
 10
18.4688
 20
20.5196
 30
0.0
 40
0
 41
0
  0
VERTEX
  8
0
 10
18.4126
 20
20.5401
 30
0.0
 40
0
 41
0
  0
VERTEX
  8
0
 10
18.3572
 20
20.5486
 30
0.0
 40
0
 41
0
  0
VERTEX
  8
0
 10
18.3388
 20
20.5486
 30
0.0
 40
0
 41
0
  0
VERTEX
  8
0
 10
18.3314
 20
20.5486
 30
0.0
 40
0
 41
0
  0
VERTEX
  8
0
 10
18.309
 20
20.5474
 30
0.0
 40
0
 41
0
  0
VERTEX
  8
0
 10
18.2896
 20
20.545
 30
0.0
 40
0
 41
0
  0
VERTEX
  8
0
 10
18.2858
 20
20.5446
 30
0.0
 40
0
 41
0
  0
VERTEX
  8
0
 10
18.3108
 20
20.7117
 30
0.0
 40
0
 41
0
  0
VERTEX
  8
0
 10
18.5589
 20
20.7117
 30
0.0
 40
0
 41
0
  0
VERTEX
  8
0
 10
18.5589
 20
20.7854
 30
0.0
 40
0
 41
0
  0
SEQEND
 8
0
  0
POLYLINE
  8
0
 62
     0
 66
     1
 10
0
 20
0
 30
0.0
 70
     1
 40
0
 41
0
  0
VERTEX
  8
0
 10
18.7318
 20
20.8115
 30
0.0
 40
0
 41
0
  0
VERTEX
  8
0
 10
18.729
 20
20.7935
 30
0.0
 40
0
 41
0
  0
VERTEX
  8
0
 10
18.7061
 20
20.6892
 30
0.0
 40
0
 41
0
  0
VERTEX
  8
0
 10
18.6782
 20
20.5914
 30
0.0
 40
0
 41
0
  0
VERTEX
  8
0
 10
18.6729
 20
20.5767
 30
0.0
 40
0
 41
0
  0
VERTEX
  8
0
 10
18.7289
 20
20.5836
 30
0.0
 40
0
 41
0
  0
VERTEX
  8
0
 10
18.7353
 20
20.5944
 30
0.0
 40
0
 41
0
  0
VERTEX
  8
0
 10
18.7515
 20
20.6282
 30
0.0
 40
0
 41
0
  0
VERTEX
  8
0
 10
18.7768
 20
20.6879
 30
0.0
 40
0
 41
0
  0
VERTEX
  8
0
 10
18.8014
 20
20.7546
 30
0.0
 40
0
 41
0
  0
VERTEX
  8
0
 10
18.8172
 20
20.804
 30
0.0
 40
0
 41
0
  0
VERTEX
  8
0
 10
18.8218
 20
20.8206
 30
0.0
 40
0
 41
0
  0
VERTEX
  8
0
 10
18.7318
 20
20.8115
 30
0.0
 40
0
 41
0
  0
SEQEND
 8
0
  0
POLYLINE
  8
0
 62
     0
 66
     1
 10
0
 20
0
 30
0.0
 70
     1
 40
0
 41
0
  0
VERTEX
  8
0
 10
18.8797
 20
20.8115
 30
0.0
 40
0
 41
0
  0
VERTEX
  8
0
 10
18.8771
 20
20.7935
 30
0.0
 40
0
 41
0
  0
VERTEX
  8
0
 10
18.8544
 20
20.6892
 30
0.0
 40
0
 41
0
  0
VERTEX
  8
0
 10
18.8263
 20
20.5914
 30
0.0
 40
0
 41
0
  0
VERTEX
  8
0
 10
18.8207
 20
20.5767
 30
0.0
 40
0
 41
0
  0
VERTEX
  8
0
 10
18.8768
 20
20.5836
 30
0.0
 40
0
 41
0
  0
VERTEX
  8
0
 10
18.8831
 20
20.5944
 30
0.0
 40
0
 41
0
  0
VERTEX
  8
0
 10
18.8994
 20
20.6282
 30
0.0
 40
0
 41
0
  0
VERTEX
  8
0
 10
18.9249
 20
20.6879
 30
0.0
 40
0
 41
0
  0
VERTEX
  8
0
 10
18.9494
 20
20.7546
 30
0.0
 40
0
 41
0
  0
VERTEX
  8
0
 10
18.9653
 20
20.804
 30
0.0
 40
0
 41
0
  0
VERTEX
  8
0
 10
18.9699
 20
20.8206
 30
0.0
 40
0
 41
0
  0
VERTEX
  8
0
 10
18.8797
 20
20.8115
 30
0.0
 40
0
 41
0
  0
SEQEND
 8
0
  0
POLYLINE
  8
0
 62
     0
 66
     1
 10
0
 20
0
 30
0.0
 70
     1
 40
0
 41
0
  0
VERTEX
  8
0
 10
19.1347
 20
20.6196
 30
0.0
 40
0
 41
0
  0
VERTEX
  8
0
 10
19.2986
 20
20.3826
 30
0.0
 40
0
 41
0
  0
VERTEX
  8
0
 10
19.1268
 20
20.1357
 30
0.0
 40
0
 41
0
  0
VERTEX
  8
0
 10
19.2237
 20
20.1357
 30
0.0
 40
0
 41
0
  0
VERTEX
  8
0
 10
19.2936
 20
20.2446
 30
0.0
 40
0
 41
0
  0
VERTEX
  8
0
 10
19.2981
 20
20.2519
 30
0.0
 40
0
 41
0
  0
VERTEX
  8
0
 10
19.3406
 20
20.3214
 30
0.0
 40
0
 41
0
  0
VERTEX
  8
0
 10
19.3446
 20
20.3286
 30
0.0
 40
0
 41
0
  0
VERTEX
  8
0
 10
19.3465
 20
20.3286
 30
0.0
 40
0
 41
0
  0
VERTEX
  8
0
 10
19.3508
 20
20.3214
 30
0.0
 40
0
 41
0
  0
VERTEX
  8
0
 10
19.3939
 20
20.2517
 30
0.0
 40
0
 41
0
  0
VERTEX
  8
0
 10
19.3986
 20
20.2446
 30
0.0
 40
0
 41
0
  0
VERTEX
  8
0
 10
19.4696
 20
20.1357
 30
0.0
 40
0
 41
0
  0
VERTEX
  8
0
 10
19.5697
 20
20.1357
 30
0.0
 40
0
 41
0
  0
VERTEX
  8
0
 10
19.3997
 20
20.3857
 30
0.0
 40
0
 41
0
  0
VERTEX
  8
0
 10
19.5647
 20
20.6196
 30
0.0
 40
0
 41
0
  0
VERTEX
  8
0
 10
19.4696
 20
20.6196
 30
0.0
 40
0
 41
0
  0
VERTEX
  8
0
 10
19.4017
 20
20.5165
 30
0.0
 40
0
 41
0
  0
VERTEX
  8
0
 10
19.3976
 20
20.51
 30
0.0
 40
0
 41
0
  0
VERTEX
  8
0
 10
19.3576
 20
20.4439
 30
0.0
 40
0
 41
0
  0
VERTEX
  8
0
 10
19.3537
 20
20.4367
 30
0.0
 40
0
 41
0
  0
VERTEX
  8
0
 10
19.3507
 20
20.4367
 30
0.0
 40
0
 41
0
  0
VERTEX
  8
0
 10
19.3467
 20
20.4435
 30
0.0
 40
0
 41
0
  0
VERTEX
  8
0
 10
19.3061
 20
20.5089
 30
0.0
 40
0
 41
0
  0
VERTEX
  8
0
 10
19.3017
 20
20.5157
 30
0.0
 40
0
 41
0
  0
VERTEX
  8
0
 10
19.2326
 20
20.6196
 30
0.0
 40
0
 41
0
  0
VERTEX
  8
0
 10
19.1347
 20
20.6196
 30
0.0
 40
0
 41
0
  0
SEQEND
 8
0
  0
POLYLINE
  8
0
 62
     0
 66
     1
 10
0
 20
0
 30
0.0
 70
     1
 40
0
 41
0
  0
VERTEX
  8
0
 10
20.0296
 20
20.1357
 30
0.0
 40
0
 41
0
  0
VERTEX
  8
0
 10
20.1146
 20
20.1357
 30
0.0
 40
0
 41
0
  0
VERTEX
  8
0
 10
20.1146
 20
20.7854
 30
0.0
 40
0
 41
0
  0
VERTEX
  8
0
 10
20.0396
 20
20.7854
 30
0.0
 40
0
 41
0
  0
VERTEX
  8
0
 10
19.8976
 20
20.7094
 30
0.0
 40
0
 41
0
  0
VERTEX
  8
0
 10
19.9146
 20
20.6426
 30
0.0
 40
0
 41
0
  0
VERTEX
  8
0
 10
20.0276
 20
20.7036
 30
0.0
 40
0
 41
0
  0
VERTEX
  8
0
 10
20.0296
 20
20.7036
 30
0.0
 40
0
 41
0
  0
VERTEX
  8
0
 10
20.0296
 20
20.1357
 30
0.0
 40
0
 41
0
  0
SEQEND
 8
0
  0
POLYLINE
  8
0
 62
     0
 66
     1
 10
0
 20
0
 30
0.0
 70
     1
 40
0
 41
0
  0
VERTEX
  8
0
 10
20.7225
 20
20.7954
 30
0.0
 40
0
 41
0
  0
VERTEX
  8
0
 10
20.7154
 20
20.7954
 30
0.0
 40
0
 41
0
  0
VERTEX
  8
0
 10
20.6943
 20
20.7944
 30
0.0
 40
0
 41
0
  0
VERTEX
  8
0
 10
20.6651
 20
20.7914
 30
0.0
 40
0
 41
0
  0
VERTEX
  8
0
 10
20.6586
 20
20.7904
 30
0.0
 40
0
 41
0
  0
VERTEX
  8
0
 10
20.6436
 20
20.7886
 30
0.0
 40
0
 41
0
  0
VERTEX
  8
0
 10
20.599
 20
20.7787
 30
0.0
 40
0
 41
0
  0
VERTEX
  8
0
 10
20.544
 20
20.7586
 30
0.0
 40
0
 41
0
  0
VERTEX
  8
0
 10
20.4943
 20
20.7304
 30
0.0
 40
0
 41
0
  0
VERTEX
  8
0
 10
20.4606
 20
20.7043
 30
0.0
 40
0
 41
0
  0
VERTEX
  8
0
 10
20.4506
 20
20.6944
 30
0.0
 40
0
 41
0
  0
VERTEX
  8
0
 10
20.4382
 20
20.6821
 30
0.0
 40
0
 41
0
  0
VERTEX
  8
0
 10
20.4064
 20
20.6397
 30
0.0
 40
0
 41
0
  0
VERTEX
  8
0
 10
20.3717
 20
20.5721
 30
0.0
 40
0
 41
0
  0
VERTEX
  8
0
 10
20.3489
 20
20.4924
 30
0.0
 40
0
 41
0
  0
VERTEX
  8
0
 10
20.3407
 20
20.4243
 30
0.0
 40
0
 41
0
  0
VERTEX
  8
0
 10
20.3407
 20
20.4015
 30
0.0
 40
0
 41
0
  0
VERTEX
  8
0
 10
20.3407
 20
20.3729
 30
0.0
 40
0
 41
0
  0
VERTEX
  8
0
 10
20.3571
 20
20.2871
 30
0.0
 40
0
 41
0
  0
VERTEX
  8
0
 10
20.4035
 20
20.1997
 30
0.0
 40
0
 41
0
  0
VERTEX
  8
0
 10
20.476
 20
20.1442
 30
0.0
 40
0
 41
0
  0
VERTEX
  8
0
 10
20.5469
 20
20.1246
 30
0.0
 40
0
 41
0
  0
VERTEX
  8
0
 10
20.5706
 20
20.1246
 30
0.0
 40
0
 41
0
  0
VERTEX
  8
0
 10
20.5932
 20
20.1246
 30
0.0
 40
0
 41
0
  0
VERTEX
  8
0
 10
20.6612
 20
20.1437
 30
0.0
 40
0
 41
0
  0
VERTEX
  8
0
 10
20.7292
 20
20.1944
 30
0.0
 40
0
 41
0
  0
VERTEX
  8
0
 10
20.7717
 20
20.2676
 30
0.0
 40
0
 41
0
  0
VERTEX
  8
0
 10
20.7865
 20
20.3321
 30
0.0
 40
0
 41
0
  0
VERTEX
  8
0
 10
20.7865
 20
20.3536
 30
0.0
 40
0
 41
0
  0
VERTEX
  8
0
 10
20.7865
 20
20.365
 30
0.0
 40
0
 41
0
  0
VERTEX
  8
0
 10
20.7828
 20
20.399
 30
0.0
 40
0
 41
0
  0
VERTEX
  8
0
 10
20.7719
 20
20.44
 30
0.0
 40
0
 41
0
  0
VERTEX
  8
0
 10
20.7547
 20
20.4758
 30
0.0
 40
0
 41
0
  0
VERTEX
  8
0
 10
20.7317
 20
20.5062
 30
0.0
 40
0
 41
0
  0
VERTEX
  8
0
 10
20.7031
 20
20.5307
 30
0.0
 40
0
 41
0
  0
VERTEX
  8
0
 10
20.6696
 20
20.5488
 30
0.0
 40
0
 41
0
  0
VERTEX
  8
0
 10
20.6319
 20
20.5599
 30
0.0
 40
0
 41
0
  0
VERTEX
  8
0
 10
20.6008
 20
20.5636
 30
0.0
 40
0
 41
0
  0
VERTEX
  8
0
 10
20.5906
 20
20.5636
 30
0.0
 40
0
 41
0
  0
VERTEX
  8
0
 10
20.5779
 20
20.5636
 30
0.0
 40
0
 41
0
  0
VERTEX
  8
0
 10
20.54
 20
20.5578
 30
0.0
 40
0
 41
0
  0
VERTEX
  8
0
 10
20.4968
 20
20.5415
 30
0.0
 40
0
 41
0
  0
VERTEX
  8
0
 10
20.4611
 20
20.5176
 30
0.0
 40
0
 41
0
  0
VERTEX
  8
0
 10
20.4396
 20
20.4965
 30
0.0
 40
0
 41
0
  0
VERTEX
  8
0
 10
20.4336
 20
20.4886
 30
0.0
 40
0
 41
0
  0
VERTEX
  8
0
 10
20.4306
 20
20.4886
 30
0.0
 40
0
 41
0
  0
VERTEX
  8
0
 10
20.4333
 20
20.5085
 30
0.0
 40
0
 41
0
  0
VERTEX
  8
0
 10
20.4528
 20
20.5665
 30
0.0
 40
0
 41
0
  0
VERTEX
  8
0
 10
20.4975
 20
20.6356
 30
0.0
 40
0
 41
0
  0
VERTEX
  8
0
 10
20.5651
 20
20.6887
 30
0.0
 40
0
 41
0
  0
VERTEX
  8
0
 10
20.6329
 20
20.7156
 30
0.0
 40
0
 41
0
  0
VERTEX
  8
0
 10
20.6565
 20
20.7194
 30
0.0
 40
0
 41
0
  0
VERTEX
  8
0
 10
20.6628
 20
20.7206
 30
0.0
 40
0
 41
0
  0
VERTEX
  8
0
 10
20.7181
 20
20.7237
 30
0.0
 40
0
 41
0
  0
VERTEX
  8
0
 10
20.7225
 20
20.7236
 30
0.0
 40
0
 41
0
  0
VERTEX
  8
0
 10
20.7225
 20
20.7954
 30
0.0
 40
0
 41
0
  0
SEQEND
 8
0
  0
POLYLINE
  8
0
 62
     0
 66
     1
 10
0
 20
0
 30
0.0
 70
     1
 40
0
 41
0
  0
VERTEX
  8
0
 10
20.5706
 20
20.1928
 30
0.0
 40
0
 41
0
  0
VERTEX
  8
0
 10
20.5553
 20
20.1928
 30
0.0
 40
0
 41
0
  0
VERTEX
  8
0
 10
20.5097
 20
20.2068
 30
0.0
 40
0
 41
0
  0
VERTEX
  8
0
 10
20.4653
 20
20.2456
 30
0.0
 40
0
 41
0
  0
VERTEX
  8
0
 10
20.4378
 20
20.3044
 30
0.0
 40
0
 41
0
  0
VERTEX
  8
0
 10
20.4278
 20
20.36
 30
0.0
 40
0
 41
0
  0
VERTEX
  8
0
 10
20.4275
 20
20.3785
 30
0.0
 40
0
 41
0
  0
VERTEX
  8
0
 10
20.4275
 20
20.3883
 30
0.0
 40
0
 41
0
  0
VERTEX
  8
0
 10
20.436
 20
20.4151
 30
0.0
 40
0
 41
0
  0
VERTEX
  8
0
 10
20.4375
 20
20.4176
 30
0.0
 40
0
 41
0
  0
VERTEX
  8
0
 10
20.4419
 20
20.4262
 30
0.0
 40
0
 41
0
  0
VERTEX
  8
0
 10
20.4599
 20
20.45
 30
0.0
 40
0
 41
0
  0
VERTEX
  8
0
 10
20.4897
 20
20.4753
 30
0.0
 40
0
 41
0
  0
VERTEX
  8
0
 10
20.5249
 20
20.4918
 30
0.0
 40
0
 41
0
  0
VERTEX
  8
0
 10
20.5539
 20
20.4976
 30
0.0
 40
0
 41
0
  0
VERTEX
  8
0
 10
20.5636
 20
20.4976
 30
0.0
 40
0
 41
0
  0
VERTEX
  8
0
 10
20.5774
 20
20.4976
 30
0.0
 40
0
 41
0
  0
VERTEX
  8
0
 10
20.6186
 20
20.4875
 30
0.0
 40
0
 41
0
  0
VERTEX
  8
0
 10
20.6608
 20
20.4581
 30
0.0
 40
0
 41
0
  0
VERTEX
  8
0
 10
20.6879
 20
20.4112
 30
0.0
 40
0
 41
0
  0
VERTEX
  8
0
 10
20.6975
 20
20.3643
 30
0.0
 40
0
 41
0
  0
VERTEX
  8
0
 10
20.6975
 20
20.3486
 30
0.0
 40
0
 41
0
  0
VERTEX
  8
0
 10
20.6975
 20
20.3328
 30
0.0
 40
0
 41
0
  0
VERTEX
  8
0
 10
20.6883
 20
20.285
 30
0.0
 40
0
 41
0
  0
VERTEX
  8
0
 10
20.6625
 20
20.2358
 30
0.0
 40
0
 41
0
  0
VERTEX
  8
0
 10
20.6224
 20
20.204
 30
0.0
 40
0
 41
0
  0
VERTEX
  8
0
 10
20.5835
 20
20.1928
 30
0.0
 40
0
 41
0
  0
VERTEX
  8
0
 10
20.5706
 20
20.1928
 30
0.0
 40
0
 41
0
  0
SEQEND
 8
0
  0
POLYLINE
  8
0
 62
     0
 66
     1
 10
0
 20
0
 30
0.0
 70
     1
 40
0
 41
0
  0
VERTEX
  8
0
 10
20.9306
 20
20.1246
 30
0.0
 40
0
 41
0
  0
VERTEX
  8
0
 10
20.9368
 20
20.1246
 30
0.0
 40
0
 41
0
  0
VERTEX
  8
0
 10
20.9556
 20
20.1294
 30
0.0
 40
0
 41
0
  0
VERTEX
  8
0
 10
20.9744
 20
20.1426
 30
0.0
 40
0
 41
0
  0
VERTEX
  8
0
 10
20.9864
 20
20.1626
 30
0.0
 40
0
 41
0
  0
VERTEX
  8
0
 10
20.9906
 20
20.1815
 30
0.0
 40
0
 41
0
  0
VERTEX
  8
0
 10
20.9906
 20
20.1878
 30
0.0
 40
0
 41
0
  0
VERTEX
  8
0
 10
20.9906
 20
20.1942
 30
0.0
 40
0
 41
0
  0
VERTEX
  8
0
 10
20.9863
 20
20.2132
 30
0.0
 40
0
 41
0
  0
VERTEX
  8
0
 10
20.9742
 20
20.2331
 30
0.0
 40
0
 41
0
  0
VERTEX
  8
0
 10
20.9556
 20
20.2461
 30
0.0
 40
0
 41
0
  0
VERTEX
  8
0
 10
20.9375
 20
20.2507
 30
0.0
 40
0
 41
0
  0
VERTEX
  8
0
 10
20.9315
 20
20.2507
 30
0.0
 40
0
 41
0
  0
VERTEX
  8
0
 10
20.9256
 20
20.2507
 30
0.0
 40
0
 41
0
  0
VERTEX
  8
0
 10
20.9075
 20
20.2461
 30
0.0
 40
0
 41
0
  0
VERTEX
  8
0
 10
20.8885
 20
20.2331
 30
0.0
 40
0
 41
0
  0
VERTEX
  8
0
 10
20.8761
 20
20.2132
 30
0.0
 40
0
 41
0
  0
VERTEX
  8
0
 10
20.8717
 20
20.1942
 30
0.0
 40
0
 41
0
  0
VERTEX
  8
0
 10
20.8717
 20
20.1878
 30
0.0
 40
0
 41
0
  0
VERTEX
  8
0
 10
20.8717
 20
20.1815
 30
0.0
 40
0
 41
0
  0
VERTEX
  8
0
 10
20.876
 20
20.1626
 30
0.0
 40
0
 41
0
  0
VERTEX
  8
0
 10
20.8879
 20
20.1426
 30
0.0
 40
0
 41
0
  0
VERTEX
  8
0
 10
20.9065
 20
20.1294
 30
0.0
 40
0
 41
0
  0
VERTEX
  8
0
 10
20.9244
 20
20.1246
 30
0.0
 40
0
 41
0
  0
VERTEX
  8
0
 10
20.9306
 20
20.1246
 30
0.0
 40
0
 41
0
  0
SEQEND
 8
0
  0
POLYLINE
  8
0
 62
     0
 66
     1
 10
0
 20
0
 30
0.0
 70
     1
 40
0
 41
0
  0
VERTEX
  8
0
 10
21.4596
 20
20.7854
 30
0.0
 40
0
 41
0
  0
VERTEX
  8
0
 10
21.1486
 20
20.7854
 30
0.0
 40
0
 41
0
  0
VERTEX
  8
0
 10
21.1067
 20
20.4736
 30
0.0
 40
0
 41
0
  0
VERTEX
  8
0
 10
21.1126
 20
20.4743
 30
0.0
 40
0
 41
0
  0
VERTEX
  8
0
 10
21.1467
 20
20.4782
 30
0.0
 40
0
 41
0
  0
VERTEX
  8
0
 10
21.184
 20
20.4806
 30
0.0
 40
0
 41
0
  0
VERTEX
  8
0
 10
21.1965
 20
20.4806
 30
0.0
 40
0
 41
0
  0
VERTEX
  8
0
 10
21.2175
 20
20.4806
 30
0.0
 40
0
 41
0
  0
VERTEX
  8
0
 10
21.2804
 20
20.4699
 30
0.0
 40
0
 41
0
  0
VERTEX
  8
0
 10
21.3383
 20
20.4401
 30
0.0
 40
0
 41
0
  0
VERTEX
  8
0
 10
21.3721
 20
20.3946
 30
0.0
 40
0
 41
0
  0
VERTEX
  8
0
 10
21.3833
 20
20.3513
 30
0.0
 40
0
 41
0
  0
VERTEX
  8
0
 10
21.3836
 20
20.3367
 30
0.0
 40
0
 41
0
  0
VERTEX
  8
0
 10
21.3836
 20
20.3219
 30
0.0
 40
0
 41
0
  0
VERTEX
  8
0
 10
21.3711
 20
20.2779
 30
0.0
 40
0
 41
0
  0
VERTEX
  8
0
 10
21.3376
 20
20.2335
 30
0.0
 40
0
 41
0
  0
VERTEX
  8
0
 10
21.2886
 20
20.2054
 30
0.0
 40
0
 41
0
  0
VERTEX
  8
0
 10
21.2443
 20
20.1956
 30
0.0
 40
0
 41
0
  0
VERTEX
  8
0
 10
21.2294
 20
20.1956
 30
0.0
 40
0
 41
0
  0
VERTEX
  8
0
 10
21.2188
 20
20.1956
 30
0.0
 40
0
 41
0
  0
VERTEX
  8
0
 10
21.1867
 20
20.199
 30
0.0
 40
0
 41
0
  0
VERTEX
  8
0
 10
21.1481
 20
20.2076
 30
0.0
 40
0
 41
0
  0
VERTEX
  8
0
 10
21.1153
 20
20.2193
 30
0.0
 40
0
 41
0
  0
VERTEX
  8
0
 10
21.0965
 20
20.2282
 30
0.0
 40
0
 41
0
  0
VERTEX
  8
0
 10
21.0906
 20
20.2317
 30
0.0
 40
0
 41
0
  0
VERTEX
  8
0
 10
21.0685
 20
20.1647
 30
0.0
 40
0
 41
0
  0
VERTEX
  8
0
 10
21.0751
 20
20.1604
 30
0.0
 40
0
 41
0
  0
VERTEX
  8
0
 10
21.0969
 20
20.15
 30
0.0
 40
0
 41
0
  0
VERTEX
  8
0
 10
21.1346
 20
20.1372
 30
0.0
 40
0
 41
0
  0
VERTEX
  8
0
 10
21.1796
 20
20.1281
 30
0.0
 40
0
 41
0
  0
VERTEX
  8
0
 10
21.2178
 20
20.1246
 30
0.0
 40
0
 41
0
  0
VERTEX
  8
0
 10
21.2306
 20
20.1246
 30
0.0
 40
0
 41
0
  0
VERTEX
  8
0
 10
21.2549
 20
20.1246
 30
0.0
 40
0
 41
0
  0
VERTEX
  8
0
 10
21.3278
 20
20.1415
 30
0.0
 40
0
 41
0
  0
VERTEX
  8
0
 10
21.4043
 20
20.1881
 30
0.0
 40
0
 41
0
  0
VERTEX
  8
0
 10
21.4546
 20
20.2585
 30
0.0
 40
0
 41
0
  0
VERTEX
  8
0
 10
21.4725
 20
20.3246
 30
0.0
 40
0
 41
0
  0
VERTEX
  8
0
 10
21.4725
 20
20.3467
 30
0.0
 40
0
 41
0
  0
VERTEX
  8
0
 10
21.4725
 20
20.3608
 30
0.0
 40
0
 41
0
  0
VERTEX
  8
0
 10
21.4651
 20
20.4033
 30
0.0
 40
0
 41
0
  0
VERTEX
  8
0
 10
21.4451
 20
20.45
 30
0.0
 40
0
 41
0
  0
VERTEX
  8
0
 10
21.4154
 20
20.4868
 30
0.0
 40
0
 41
0
  0
VERTEX
  8
0
 10
21.3892
 20
20.5081
 30
0.0
 40
0
 41
0
  0
VERTEX
  8
0
 10
21.3794
 20
20.5135
 30
0.0
 40
0
 41
0
  0
VERTEX
  8
0
 10
21.3694
 20
20.5196
 30
0.0
 40
0
 41
0
  0
VERTEX
  8
0
 10
21.3132
 20
20.5401
 30
0.0
 40
0
 41
0
  0
VERTEX
  8
0
 10
21.2579
 20
20.5486
 30
0.0
 40
0
 41
0
  0
VERTEX
  8
0
 10
21.2394
 20
20.5486
 30
0.0
 40
0
 41
0
  0
VERTEX
  8
0
 10
21.2319
 20
20.5486
 30
0.0
 40
0
 41
0
  0
VERTEX
  8
0
 10
21.2096
 20
20.5474
 30
0.0
 40
0
 41
0
  0
VERTEX
  8
0
 10
21.1903
 20
20.545
 30
0.0
 40
0
 41
0
  0
VERTEX
  8
0
 10
21.1865
 20
20.5446
 30
0.0
 40
0
 41
0
  0
VERTEX
  8
0
 10
21.2115
 20
20.7117
 30
0.0
 40
0
 41
0
  0
VERTEX
  8
0
 10
21.4596
 20
20.7117
 30
0.0
 40
0
 41
0
  0
VERTEX
  8
0
 10
21.4596
 20
20.7854
 30
0.0
 40
0
 41
0
  0
SEQEND
 8
0
  0
POLYLINE
  8
0
 62
     0
 66
     1
 10
0
 20
0
 30
0.0
 70
     1
 40
0
 41
0
  0
VERTEX
  8
0
 10
21.6325
 20
20.8115
 30
0.0
 40
0
 41
0
  0
VERTEX
  8
0
 10
21.6297
 20
20.7935
 30
0.0
 40
0
 41
0
  0
VERTEX
  8
0
 10
21.6068
 20
20.6892
 30
0.0
 40
0
 41
0
  0
VERTEX
  8
0
 10
21.5789
 20
20.5914
 30
0.0
 40
0
 41
0
  0
VERTEX
  8
0
 10
21.5736
 20
20.5767
 30
0.0
 40
0
 41
0
  0
VERTEX
  8
0
 10
21.6296
 20
20.5836
 30
0.0
 40
0
 41
0
  0
VERTEX
  8
0
 10
21.636
 20
20.5944
 30
0.0
 40
0
 41
0
  0
VERTEX
  8
0
 10
21.6522
 20
20.6282
 30
0.0
 40
0
 41
0
  0
VERTEX
  8
0
 10
21.6775
 20
20.6879
 30
0.0
 40
0
 41
0
  0
VERTEX
  8
0
 10
21.7021
 20
20.7546
 30
0.0
 40
0
 41
0
  0
VERTEX
  8
0
 10
21.7179
 20
20.804
 30
0.0
 40
0
 41
0
  0
VERTEX
  8
0
 10
21.7225
 20
20.8206
 30
0.0
 40
0
 41
0
  0
VERTEX
  8
0
 10
21.6325
 20
20.8115
 30
0.0
 40
0
 41
0
  0
SEQEND
 8
0
  0
POLYLINE
  8
0
 62
     0
 66
     1
 10
0
 20
0
 30
0.0
 70
     1
 40
0
 41
0
  0
VERTEX
  8
0
 10
21.7804
 20
20.8115
 30
0.0
 40
0
 41
0
  0
VERTEX
  8
0
 10
21.7778
 20
20.7935
 30
0.0
 40
0
 41
0
  0
VERTEX
  8
0
 10
21.7551
 20
20.6892
 30
0.0
 40
0
 41
0
  0
VERTEX
  8
0
 10
21.7269
 20
20.5914
 30
0.0
 40
0
 41
0
  0
VERTEX
  8
0
 10
21.7214
 20
20.5767
 30
0.0
 40
0
 41
0
  0
VERTEX
  8
0
 10
21.7774
 20
20.5836
 30
0.0
 40
0
 41
0
  0
VERTEX
  8
0
 10
21.7838
 20
20.5944
 30
0.0
 40
0
 41
0
  0
VERTEX
  8
0
 10
21.8001
 20
20.6282
 30
0.0
 40
0
 41
0
  0
VERTEX
  8
0
 10
21.8254
 20
20.6879
 30
0.0
 40
0
 41
0
  0
VERTEX
  8
0
 10
21.85
 20
20.7546
 30
0.0
 40
0
 41
0
  0
VERTEX
  8
0
 10
21.866
 20
20.804
 30
0.0
 40
0
 41
0
  0
VERTEX
  8
0
 10
21.8706
 20
20.8206
 30
0.0
 40
0
 41
0
  0
VERTEX
  8
0
 10
21.7804
 20
20.8115
 30
0.0
 40
0
 41
0
  0
SEQEND
 8
0
  0
POLYLINE
  8
0
 62
     0
 66
     1
 10
0
 20
0
 30
0.0
 70
     1
 40
0
 41
0
  0
VERTEX
  8
0
 10
13.082
 20
15.5328
 30
0.0
 40
0
 41
0
  0
VERTEX
  8
0
 10
13.169
 20
15.5328
 30
0.0
 40
0
 41
0
  0
VERTEX
  8
0
 10
13.169
 20
15.8246
 30
0.0
 40
0
 41
0
  0
VERTEX
  8
0
 10
13.251
 20
15.8246
 30
0.0
 40
0
 41
0
  0
VERTEX
  8
0
 10
13.2639
 20
15.8242
 30
0.0
 40
0
 41
0
  0
VERTEX
  8
0
 10
13.3026
 20
15.816
 30
0.0
 40
0
 41
0
  0
VERTEX
  8
0
 10
13.3406
 20
15.7929
 30
0.0
 40
0
 41
0
  0
VERTEX
  8
0
 10
13.3675
 20
15.7529
 30
0.0
 40
0
 41
0
  0
VERTEX
  8
0
 10
13.3827
 20
15.7089
 30
0.0
 40
0
 41
0
  0
VERTEX
  8
0
 10
13.386
 20
15.6937
 30
0.0
 40
0
 41
0
  0
VERTEX
  8
0
 10
13.3893
 20
15.6793
 30
0.0
 40
0
 41
0
  0
VERTEX
  8
0
 10
13.3994
 20
15.6358
 30
0.0
 40
0
 41
0
  0
VERTEX
  8
0
 10
13.4114
 20
15.5889
 30
0.0
 40
0
 41
0
  0
VERTEX
  8
0
 10
13.4219
 20
15.5542
 30
0.0
 40
0
 41
0
  0
VERTEX
  8
0
 10
13.4282
 20
15.5375
 30
0.0
 40
0
 41
0
  0
VERTEX
  8
0
 10
13.4309
 20
15.5328
 30
0.0
 40
0
 41
0
  0
VERTEX
  8
0
 10
13.521
 20
15.5328
 30
0.0
 40
0
 41
0
  0
VERTEX
  8
0
 10
13.5176
 20
15.539
 30
0.0
 40
0
 41
0
  0
VERTEX
  8
0
 10
13.51
 20
15.5594
 30
0.0
 40
0
 41
0
  0
VERTEX
  8
0
 10
13.4979
 20
15.5997
 30
0.0
 40
0
 41
0
  0
VERTEX
  8
0
 10
13.4843
 20
15.6528
 30
0.0
 40
0
 41
0
  0
VERTEX
  8
0
 10
13.4727
 20
15.7014
 30
0.0
 40
0
 41
0
  0
VERTEX
  8
0
 10
13.4689
 20
15.7176
 30
0.0
 40
0
 41
0
  0
VERTEX
  8
0
 10
13.4661
 20
15.7299
 30
0.0
 40
0
 41
0
  0
VERTEX
  8
0
 10
13.4539
 20
15.766
 30
0.0
 40
0
 41
0
  0
VERTEX
  8
0
 10
13.4328
 20
15.8051
 30
0.0
 40
0
 41
0
  0
VERTEX
  8
0
 10
13.405
 20
15.8347
 30
0.0
 40
0
 41
0
  0
VERTEX
  8
0
 10
13.3792
 20
15.8504
 30
0.0
 40
0
 41
0
  0
VERTEX
  8
0
 10
13.37
 20
15.8536
 30
0.0
 40
0
 41
0
  0
VERTEX
  8
0
 10
13.37
 20
15.8567
 30
0.0
 40
0
 41
0
  0
VERTEX
  8
0
 10
13.3829
 20
15.8611
 30
0.0
 40
0
 41
0
  0
VERTEX
  8
0
 10
13.4197
 20
15.8811
 30
0.0
 40
0
 41
0
  0
VERTEX
  8
0
 10
13.46
 20
15.9182
 30
0.0
 40
0
 41
0
  0
VERTEX
  8
0
 10
13.487
 20
15.9675
 30
0.0
 40
0
 41
0
  0
VERTEX
  8
0
 10
13.4969
 20
16.0133
 30
0.0
 40
0
 41
0
  0
VERTEX
  8
0
 10
13.4969
 20
16.0286
 30
0.0
 40
0
 41
0
  0
VERTEX
  8
0
 10
13.4969
 20
16.0467
 30
0.0
 40
0
 41
0
  0
VERTEX
  8
0
 10
13.4831
 20
16.1008
 30
0.0
 40
0
 41
0
  0
VERTEX
  8
0
 10
13.4524
 20
16.149
 30
0.0
 40
0
 41
0
  0
VERTEX
  8
0
 10
13.444
 20
16.1567
 30
0.0
 40
0
 41
0
  0
VERTEX
  8
0
 10
13.436
 20
16.1638
 30
0.0
 40
0
 41
0
  0
VERTEX
  8
0
 10
13.4088
 20
16.1813
 30
0.0
 40
0
 41
0
  0
VERTEX
  8
0
 10
13.3655
 20
16.1983
 30
0.0
 40
0
 41
0
  0
VERTEX
  8
0
 10
13.3127
 20
16.2083
 30
0.0
 40
0
 41
0
  0
VERTEX
  8
0
 10
13.2648
 20
16.2115
 30
0.0
 40
0
 41
0
  0
VERTEX
  8
0
 10
13.2489
 20
16.2115
 30
0.0
 40
0
 41
0
  0
VERTEX
  8
0
 10
13.2265
 20
16.2115
 30
0.0
 40
0
 41
0
  0
VERTEX
  8
0
 10
13.1594
 20
16.2079
 30
0.0
 40
0
 41
0
  0
VERTEX
  8
0
 10
13.093
 20
16.1999
 30
0.0
 40
0
 41
0
  0
VERTEX
  8
0
 10
13.082
 20
16.1976
 30
0.0
 40
0
 41
0
  0
VERTEX
  8
0
 10
13.082
 20
15.5328
 30
0.0
 40
0
 41
0
  0
SEQEND
 8
0
  0
POLYLINE
  8
0
 62
     0
 66
     1
 10
0
 20
0
 30
0.0
 70
     1
 40
0
 41
0
  0
VERTEX
  8
0
 10
13.169
 20
16.1367
 30
0.0
 40
0
 41
0
  0
VERTEX
  8
0
 10
13.1725
 20
16.1376
 30
0.0
 40
0
 41
0
  0
VERTEX
  8
0
 10
13.2014
 20
16.1421
 30
0.0
 40
0
 41
0
  0
VERTEX
  8
0
 10
13.2415
 20
16.1444
 30
0.0
 40
0
 41
0
  0
VERTEX
  8
0
 10
13.2549
 20
16.1444
 30
0.0
 40
0
 41
0
  0
VERTEX
  8
0
 10
13.2707
 20
16.1443
 30
0.0
 40
0
 41
0
  0
VERTEX
  8
0
 10
13.3179
 20
16.1367
 30
0.0
 40
0
 41
0
  0
VERTEX
  8
0
 10
13.3669
 20
16.1139
 30
0.0
 40
0
 41
0
  0
VERTEX
  8
0
 10
13.3986
 20
16.0749
 30
0.0
 40
0
 41
0
  0
VERTEX
  8
0
 10
13.4099
 20
16.0328
 30
0.0
 40
0
 41
0
  0
VERTEX
  8
0
 10
13.4099
 20
16.0186
 30
0.0
 40
0
 41
0
  0
VERTEX
  8
0
 10
13.4099
 20
16.0056
 30
0.0
 40
0
 41
0
  0
VERTEX
  8
0
 10
13.3992
 20
15.9661
 30
0.0
 40
0
 41
0
  0
VERTEX
  8
0
 10
13.3688
 20
15.9257
 30
0.0
 40
0
 41
0
  0
VERTEX
  8
0
 10
13.3209
 20
15.8999
 30
0.0
 40
0
 41
0
  0
VERTEX
  8
0
 10
13.2737
 20
15.8906
 30
0.0
 40
0
 41
0
  0
VERTEX
  8
0
 10
13.258
 20
15.8906
 30
0.0
 40
0
 41
0
  0
VERTEX
  8
0
 10
13.169
 20
15.8906
 30
0.0
 40
0
 41
0
  0
VERTEX
  8
0
 10
13.169
 20
16.1367
 30
0.0
 40
0
 41
0
  0
SEQEND
 8
0
  0
POLYLINE
  8
0
 62
     0
 66
     1
 10
0
 20
0
 30
0.0
 70
     1
 40
0
 41
0
  0
VERTEX
  8
0
 10
13.7799
 20
15.5328
 30
0.0
 40
0
 41
0
  0
VERTEX
  8
0
 10
13.865
 20
15.5328
 30
0.0
 40
0
 41
0
  0
VERTEX
  8
0
 10
13.865
 20
16.1825
 30
0.0
 40
0
 41
0
  0
VERTEX
  8
0
 10
13.7899
 20
16.1825
 30
0.0
 40
0
 41
0
  0
VERTEX
  8
0
 10
13.6479
 20
16.1065
 30
0.0
 40
0
 41
0
  0
VERTEX
  8
0
 10
13.6649
 20
16.0397
 30
0.0
 40
0
 41
0
  0
VERTEX
  8
0
 10
13.7779
 20
16.1007
 30
0.0
 40
0
 41
0
  0
VERTEX
  8
0
 10
13.7799
 20
16.1007
 30
0.0
 40
0
 41
0
  0
VERTEX
  8
0
 10
13.7799
 20
15.5328
 30
0.0
 40
0
 41
0
  0
SEQEND
 8
0
  0
POLYLINE
  8
0
 62
     0
 66
     1
 10
0
 20
0
 30
0.0
 70
     1
 40
0
 41
0
  0
VERTEX
  8
0
 10
14.3189
 20
16.1935
 30
0.0
 40
0
 41
0
  0
VERTEX
  8
0
 10
14.2961
 20
16.1935
 30
0.0
 40
0
 41
0
  0
VERTEX
  8
0
 10
14.2279
 20
16.1714
 30
0.0
 40
0
 41
0
  0
VERTEX
  8
0
 10
14.1565
 20
16.1063
 30
0.0
 40
0
 41
0
  0
VERTEX
  8
0
 10
14.1097
 20
16.0004
 30
0.0
 40
0
 41
0
  0
VERTEX
  8
0
 10
14.0931
 20
15.8918
 30
0.0
 40
0
 41
0
  0
VERTEX
  8
0
 10
14.0931
 20
15.8557
 30
0.0
 40
0
 41
0
  0
VERTEX
  8
0
 10
14.0932
 20
15.82
 30
0.0
 40
0
 41
0
  0
VERTEX
  8
0
 10
14.1094
 20
15.7128
 30
0.0
 40
0
 41
0
  0
VERTEX
  8
0
 10
14.1535
 20
15.6081
 30
0.0
 40
0
 41
0
  0
VERTEX
  8
0
 10
14.221
 20
15.5436
 30
0.0
 40
0
 41
0
  0
VERTEX
  8
0
 10
14.2861
 20
15.5217
 30
0.0
 40
0
 41
0
  0
VERTEX
  8
0
 10
14.3078
 20
15.5217
 30
0.0
 40
0
 41
0
  0
VERTEX
  8
0
 10
14.3318
 20
15.5217
 30
0.0
 40
0
 41
0
  0
VERTEX
  8
0
 10
14.4039
 20
15.5442
 30
0.0
 40
0
 41
0
  0
VERTEX
  8
0
 10
14.4749
 20
15.6103
 30
0.0
 40
0
 41
0
  0
VERTEX
  8
0
 10
14.5186
 20
15.7178
 30
0.0
 40
0
 41
0
  0
VERTEX
  8
0
 10
14.5338
 20
15.8279
 30
0.0
 40
0
 41
0
  0
VERTEX
  8
0
 10
14.5338
 20
15.8646
 30
0.0
 40
0
 41
0
  0
VERTEX
  8
0
 10
14.5338
 20
15.8993
 30
0.0
 40
0
 41
0
  0
VERTEX
  8
0
 10
14.5194
 20
16.0033
 30
0.0
 40
0
 41
0
  0
VERTEX
  8
0
 10
14.4776
 20
16.1067
 30
0.0
 40
0
 41
0
  0
VERTEX
  8
0
 10
14.4103
 20
16.1712
 30
0.0
 40
0
 41
0
  0
VERTEX
  8
0
 10
14.3417
 20
16.1935
 30
0.0
 40
0
 41
0
  0
VERTEX
  8
0
 10
14.3189
 20
16.1935
 30
0.0
 40
0
 41
0
  0
SEQEND
 8
0
  0
POLYLINE
  8
0
 62
     0
 66
     1
 10
0
 20
0
 30
0.0
 70
     1
 40
0
 41
0
  0
VERTEX
  8
0
 10
14.3139
 20
16.1256
 30
0.0
 40
0
 41
0
  0
VERTEX
  8
0
 10
14.3286
 20
16.1256
 30
0.0
 40
0
 41
0
  0
VERTEX
  8
0
 10
14.3729
 20
16.1067
 30
0.0
 40
0
 41
0
  0
VERTEX
  8
0
 10
14.4139
 20
16.0531
 30
0.0
 40
0
 41
0
  0
VERTEX
  8
0
 10
14.4381
 20
15.9694
 30
0.0
 40
0
 41
0
  0
VERTEX
  8
0
 10
14.4458
 20
15.8879
 30
0.0
 40
0
 41
0
  0
VERTEX
  8
0
 10
14.4458
 20
15.8606
 30
0.0
 40
0
 41
0
  0
VERTEX
  8
0
 10
14.4458
 20
15.8326
 30
0.0
 40
0
 41
0
  0
VERTEX
  8
0
 10
14.4378
 20
15.7483
 30
0.0
 40
0
 41
0
  0
VERTEX
  8
0
 10
14.4131
 20
15.6629
 30
0.0
 40
0
 41
0
  0
VERTEX
  8
0
 10
14.3715
 20
15.6087
 30
0.0
 40
0
 41
0
  0
VERTEX
  8
0
 10
14.3275
 20
15.5897
 30
0.0
 40
0
 41
0
  0
VERTEX
  8
0
 10
14.3128
 20
15.5897
 30
0.0
 40
0
 41
0
  0
VERTEX
  8
0
 10
14.2992
 20
15.5897
 30
0.0
 40
0
 41
0
  0
VERTEX
  8
0
 10
14.2585
 20
15.6074
 30
0.0
 40
0
 41
0
  0
VERTEX
  8
0
 10
14.2169
 20
15.6589
 30
0.0
 40
0
 41
0
  0
VERTEX
  8
0
 10
14.1903
 20
15.7419
 30
0.0
 40
0
 41
0
  0
VERTEX
  8
0
 10
14.1808
 20
15.8264
 30
0.0
 40
0
 41
0
  0
VERTEX
  8
0
 10
14.1808
 20
15.8546
 30
0.0
 40
0
 41
0
  0
VERTEX
  8
0
 10
14.1808
 20
15.8839
 30
0.0
 40
0
 41
0
  0
VERTEX
  8
0
 10
14.1908
 20
15.9717
 30
0.0
 40
0
 41
0
  0
VERTEX
  8
0
 10
14.2185
 20
16.0565
 30
0.0
 40
0
 41
0
  0
VERTEX
  8
0
 10
14.2606
 20
16.1082
 30
0.0
 40
0
 41
0
  0
VERTEX
  8
0
 10
14.3006
 20
16.1256
 30
0.0
 40
0
 41
0
  0
VERTEX
  8
0
 10
14.3139
 20
16.1256
 30
0.0
 40
0
 41
0
  0
SEQEND
 8
0
  0
POLYLINE
  8
0
 62
     250
 66
     1
 10
0
 20
0
 30
0.0
 40
1
 41
1
  0
VERTEX
  8
0
 10
12.7864
 20
16.5114
 30
0.0
 40
0.0138889
 41
0.0138889
  0
VERTEX
  8
0
 10
11.6059
 20
17.5149
 30
0.0
 40
0.0138889
 41
0.0138889
  0
SEQEND
 8
0
  0
POLYLINE
  8
0
 62
     240
 66
     1
 10
0
 20
0
 30
0.0
 40
5
 41
5
  0
VERTEX
  8
0
 10
0.669217
 20
22.8169
 30
0.0
 40
0.0694444
 41
0.0694444
  0
VERTEX
  8
0
 10
2.85308
 20
22.8169
 30
0.0
 40
0.0694444
 41
0.0694444
  0
SEQEND
 8
0
  0
POLYLINE
  8
0
 62
     154
 66
     1
 10
0
 20
0
 30
0.0
 40
5
 41
5
  0
VERTEX
  8
0
 10
0.669217
 20
21.6169
 30
0.0
 40
0.0694444
 41
0.0694444
  0
VERTEX
  8
0
 10
2.85308
 20
21.6169
 30
0.0
 40
0.0694444
 41
0.0694444
  0
SEQEND
 8
0
  0
POLYLINE
  8
0
 62
     154
 66
     1
 10
0
 20
0
 30
0.0
 70
     1
 40
2
 41
2
  0
VERTEX
  8
0
 10
38.126
 20
2.25
 30
0.0
 40
0.0277778
 41
0.0277778
  0
VERTEX
  8
0
 10
11.874
 20
2.25
 30
0.0
 40
0.0277778
 41
0.0277778
  0
VERTEX
  8
0
 10
11.8488
 20
2.25
 30
0.0
 40
0.0277778
 41
0.0277778
  0
VERTEX
  8
0
 10
11.7734
 20
2.26014
 30
0.0
 40
0.0277778
 41
0.0277778
  0
VERTEX
  8
0
 10
11.6797
 20
2.28922
 30
0.0
 40
0.0277778
 41
0.0277778
  0
VERTEX
  8
0
 10
11.595
 20
2.33524
 30
0.0
 40
0.0277778
 41
0.0277778
  0
VERTEX
  8
0
 10
11.5211
 20
2.39615
 30
0.0
 40
0.0277778
 41
0.0277778
  0
VERTEX
  8
0
 10
11.4602
 20
2.47
 30
0.0
 40
0.0277778
 41
0.0277778
  0
VERTEX
  8
0
 10
11.4142
 20
2.55474
 30
0.0
 40
0.0277778
 41
0.0277778
  0
VERTEX
  8
0
 10
11.3851
 20
2.64844
 30
0.0
 40
0.0277778
 41
0.0277778
  0
VERTEX
  8
0
 10
11.375
 20
2.72385
 30
0.0
 40
0.0277778
 41
0.0277778
  0
VERTEX
  8
0
 10
11.375
 20
2.74897
 30
0.0
 40
0.0277778
 41
0.0277778
  0
VERTEX
  8
0
 10
11.375
 20
17.251
 30
0.0
 40
0.0277778
 41
0.0277778
  0
VERTEX
  8
0
 10
11.375
 20
17.2763
 30
0.0
 40
0.0277778
 41
0.0277778
  0
VERTEX
  8
0
 10
11.3851
 20
17.3517
 30
0.0
 40
0.0277778
 41
0.0277778
  0
VERTEX
  8
0
 10
11.4142
 20
17.4453
 30
0.0
 40
0.0277778
 41
0.0277778
  0
VERTEX
  8
0
 10
11.4602
 20
17.53
 30
0.0
 40
0.0277778
 41
0.0277778
  0
VERTEX
  8
0
 10
11.5211
 20
17.6039
 30
0.0
 40
0.0277778
 41
0.0277778
  0
VERTEX
  8
0
 10
11.595
 20
17.6649
 30
0.0
 40
0.0277778
 41
0.0277778
  0
VERTEX
  8
0
 10
11.6797
 20
17.7108
 30
0.0
 40
0.0277778
 41
0.0277778
  0
VERTEX
  8
0
 10
11.7734
 20
17.7399
 30
0.0
 40
0.0277778
 41
0.0277778
  0
VERTEX
  8
0
 10
11.8488
 20
17.75
 30
0.0
 40
0.0277778
 41
0.0277778
  0
VERTEX
  8
0
 10
11.874
 20
17.75
 30
0.0
 40
0.0277778
 41
0.0277778
  0
VERTEX
  8
0
 10
38.126
 20
17.75
 30
0.0
 40
0.0277778
 41
0.0277778
  0
VERTEX
  8
0
 10
38.1511
 20
17.75
 30
0.0
 40
0.0277778
 41
0.0277778
  0
VERTEX
  8
0
 10
38.2265
 20
17.7399
 30
0.0
 40
0.0277778
 41
0.0277778
  0
VERTEX
  8
0
 10
38.3201
 20
17.7108
 30
0.0
 40
0.0277778
 41
0.0277778
  0
VERTEX
  8
0
 10
38.405
 20
17.6649
 30
0.0
 40
0.0277778
 41
0.0277778
  0
VERTEX
  8
0
 10
38.4789
 20
17.6039
 30
0.0
 40
0.0277778
 41
0.0277778
  0
VERTEX
  8
0
 10
38.5397
 20
17.53
 30
0.0
 40
0.0277778
 41
0.0277778
  0
VERTEX
  8
0
 10
38.5858
 20
17.4453
 30
0.0
 40
0.0277778
 41
0.0277778
  0
VERTEX
  8
0
 10
38.6149
 20
17.3517
 30
0.0
 40
0.0277778
 41
0.0277778
  0
VERTEX
  8
0
 10
38.625
 20
17.2763
 30
0.0
 40
0.0277778
 41
0.0277778
  0
VERTEX
  8
0
 10
38.625
 20
17.251
 30
0.0
 40
0.0277778
 41
0.0277778
  0
VERTEX
  8
0
 10
38.625
 20
2.74897
 30
0.0
 40
0.0277778
 41
0.0277778
  0
VERTEX
  8
0
 10
38.625
 20
2.72385
 30
0.0
 40
0.0277778
 41
0.0277778
  0
VERTEX
  8
0
 10
38.6149
 20
2.64844
 30
0.0
 40
0.0277778
 41
0.0277778
  0
VERTEX
  8
0
 10
38.5858
 20
2.55474
 30
0.0
 40
0.0277778
 41
0.0277778
  0
VERTEX
  8
0
 10
38.5397
 20
2.47
 30
0.0
 40
0.0277778
 41
0.0277778
  0
VERTEX
  8
0
 10
38.4789
 20
2.39615
 30
0.0
 40
0.0277778
 41
0.0277778
  0
VERTEX
  8
0
 10
38.405
 20
2.33524
 30
0.0
 40
0.0277778
 41
0.0277778
  0
VERTEX
  8
0
 10
38.3201
 20
2.28922
 30
0.0
 40
0.0277778
 41
0.0277778
  0
VERTEX
  8
0
 10
38.2265
 20
2.26014
 30
0.0
 40
0.0277778
 41
0.0277778
  0
VERTEX
  8
0
 10
38.1511
 20
2.25
 30
0.0
 40
0.0277778
 41
0.0277778
  0
VERTEX
  8
0
 10
38.126
 20
2.25
 30
0.0
 40
0.0277778
 41
0.0277778
  0
SEQEND
 8
0
  0
POLYLINE
  8
0
 62
     250
 66
     1
 10
0
 20
0
 30
0.0
 70
     1
 40
2
 41
2
  0
VERTEX
  8
0
 10
39.376
 20
1
 30
0.0
 40
0.0277778
 41
0.0277778
  0
VERTEX
  8
0
 10
10.624
 20
1
 30
0.0
 40
0.0277778
 41
0.0277778
  0
VERTEX
  8
0
 10
10.5988
 20
1
 30
0.0
 40
0.0277778
 41
0.0277778
  0
VERTEX
  8
0
 10
10.5234
 20
1.01015
 30
0.0
 40
0.0277778
 41
0.0277778
  0
VERTEX
  8
0
 10
10.4297
 20
1.03923
 30
0.0
 40
0.0277778
 41
0.0277778
  0
VERTEX
  8
0
 10
10.345
 20
1.08523
 30
0.0
 40
0.0277778
 41
0.0277778
  0
VERTEX
  8
0
 10
10.2711
 20
1.14616
 30
0.0
 40
0.0277778
 41
0.0277778
  0
VERTEX
  8
0
 10
10.2102
 20
1.22
 30
0.0
 40
0.0277778
 41
0.0277778
  0
VERTEX
  8
0
 10
10.1642
 20
1.30474
 30
0.0
 40
0.0277778
 41
0.0277778
  0
VERTEX
  8
0
 10
10.1351
 20
1.39844
 30
0.0
 40
0.0277778
 41
0.0277778
  0
VERTEX
  8
0
 10
10.125
 20
1.47385
 30
0.0
 40
0.0277778
 41
0.0277778
  0
VERTEX
  8
0
 10
10.125
 20
1.49897
 30
0.0
 40
0.0277778
 41
0.0277778
  0
VERTEX
  8
0
 10
10.125
 20
18.501
 30
0.0
 40
0.0277778
 41
0.0277778
  0
VERTEX
  8
0
 10
10.125
 20
18.5263
 30
0.0
 40
0.0277778
 41
0.0277778
  0
VERTEX
  8
0
 10
10.1351
 20
18.6017
 30
0.0
 40
0.0277778
 41
0.0277778
  0
VERTEX
  8
0
 10
10.1642
 20
18.6953
 30
0.0
 40
0.0277778
 41
0.0277778
  0
VERTEX
  8
0
 10
10.2102
 20
18.78
 30
0.0
 40
0.0277778
 41
0.0277778
  0
VERTEX
  8
0
 10
10.2711
 20
18.8539
 30
0.0
 40
0.0277778
 41
0.0277778
  0
VERTEX
  8
0
 10
10.345
 20
18.9149
 30
0.0
 40
0.0277778
 41
0.0277778
  0
VERTEX
  8
0
 10
10.4297
 20
18.9608
 30
0.0
 40
0.0277778
 41
0.0277778
  0
VERTEX
  8
0
 10
10.5234
 20
18.9899
 30
0.0
 40
0.0277778
 41
0.0277778
  0
VERTEX
  8
0
 10
10.5988
 20
19
 30
0.0
 40
0.0277778
 41
0.0277778
  0
VERTEX
  8
0
 10
10.624
 20
19
 30
0.0
 40
0.0277778
 41
0.0277778
  0
VERTEX
  8
0
 10
39.376
 20
19
 30
0.0
 40
0.0277778
 41
0.0277778
  0
VERTEX
  8
0
 10
39.4011
 20
19
 30
0.0
 40
0.0277778
 41
0.0277778
  0
VERTEX
  8
0
 10
39.4765
 20
18.9899
 30
0.0
 40
0.0277778
 41
0.0277778
  0
VERTEX
  8
0
 10
39.5701
 20
18.9608
 30
0.0
 40
0.0277778
 41
0.0277778
  0
VERTEX
  8
0
 10
39.655
 20
18.9149
 30
0.0
 40
0.0277778
 41
0.0277778
  0
VERTEX
  8
0
 10
39.7289
 20
18.8539
 30
0.0
 40
0.0277778
 41
0.0277778
  0
VERTEX
  8
0
 10
39.7897
 20
18.78
 30
0.0
 40
0.0277778
 41
0.0277778
  0
VERTEX
  8
0
 10
39.8358
 20
18.6953
 30
0.0
 40
0.0277778
 41
0.0277778
  0
VERTEX
  8
0
 10
39.8649
 20
18.6017
 30
0.0
 40
0.0277778
 41
0.0277778
  0
VERTEX
  8
0
 10
39.875
 20
18.5263
 30
0.0
 40
0.0277778
 41
0.0277778
  0
VERTEX
  8
0
 10
39.875
 20
18.501
 30
0.0
 40
0.0277778
 41
0.0277778
  0
VERTEX
  8
0
 10
39.875
 20
1.49897
 30
0.0
 40
0.0277778
 41
0.0277778
  0
VERTEX
  8
0
 10
39.875
 20
1.47385
 30
0.0
 40
0.0277778
 41
0.0277778
  0
VERTEX
  8
0
 10
39.8649
 20
1.39844
 30
0.0
 40
0.0277778
 41
0.0277778
  0
VERTEX
  8
0
 10
39.8358
 20
1.30474
 30
0.0
 40
0.0277778
 41
0.0277778
  0
VERTEX
  8
0
 10
39.7897
 20
1.22
 30
0.0
 40
0.0277778
 41
0.0277778
  0
VERTEX
  8
0
 10
39.7289
 20
1.14616
 30
0.0
 40
0.0277778
 41
0.0277778
  0
VERTEX
  8
0
 10
39.655
 20
1.08523
 30
0.0
 40
0.0277778
 41
0.0277778
  0
VERTEX
  8
0
 10
39.5701
 20
1.03923
 30
0.0
 40
0.0277778
 41
0.0277778
  0
VERTEX
  8
0
 10
39.4765
 20
1.01015
 30
0.0
 40
0.0277778
 41
0.0277778
  0
VERTEX
  8
0
 10
39.4011
 20
1
 30
0.0
 40
0.0277778
 41
0.0277778
  0
VERTEX
  8
0
 10
39.376
 20
1
 30
0.0
 40
0.0277778
 41
0.0277778
  0
SEQEND
 8
0
  0
POLYLINE
  8
0
 62
     2
 66
     1
 10
0
 20
0
 30
0.0
 70
     1
 40
2
 41
2
  0
VERTEX
  8
0
 10
38.626
 20
1.75
 30
0.0
 40
0.0277778
 41
0.0277778
  0
VERTEX
  8
0
 10
11.374
 20
1.75
 30
0.0
 40
0.0277778
 41
0.0277778
  0
VERTEX
  8
0
 10
11.3488
 20
1.75
 30
0.0
 40
0.0277778
 41
0.0277778
  0
VERTEX
  8
0
 10
11.2734
 20
1.76014
 30
0.0
 40
0.0277778
 41
0.0277778
  0
VERTEX
  8
0
 10
11.1797
 20
1.78922
 30
0.0
 40
0.0277778
 41
0.0277778
  0
VERTEX
  8
0
 10
11.095
 20
1.83524
 30
0.0
 40
0.0277778
 41
0.0277778
  0
VERTEX
  8
0
 10
11.0211
 20
1.89615
 30
0.0
 40
0.0277778
 41
0.0277778
  0
VERTEX
  8
0
 10
10.9602
 20
1.97
 30
0.0
 40
0.0277778
 41
0.0277778
  0
VERTEX
  8
0
 10
10.9142
 20
2.05474
 30
0.0
 40
0.0277778
 41
0.0277778
  0
VERTEX
  8
0
 10
10.8851
 20
2.14844
 30
0.0
 40
0.0277778
 41
0.0277778
  0
VERTEX
  8
0
 10
10.875
 20
2.22385
 30
0.0
 40
0.0277778
 41
0.0277778
  0
VERTEX
  8
0
 10
10.875
 20
2.24897
 30
0.0
 40
0.0277778
 41
0.0277778
  0
VERTEX
  8
0
 10
10.875
 20
17.751
 30
0.0
 40
0.0277778
 41
0.0277778
  0
VERTEX
  8
0
 10
10.875
 20
17.7763
 30
0.0
 40
0.0277778
 41
0.0277778
  0
VERTEX
  8
0
 10
10.8851
 20
17.8517
 30
0.0
 40
0.0277778
 41
0.0277778
  0
VERTEX
  8
0
 10
10.9142
 20
17.9453
 30
0.0
 40
0.0277778
 41
0.0277778
  0
VERTEX
  8
0
 10
10.9602
 20
18.03
 30
0.0
 40
0.0277778
 41
0.0277778
  0
VERTEX
  8
0
 10
11.0211
 20
18.1039
 30
0.0
 40
0.0277778
 41
0.0277778
  0
VERTEX
  8
0
 10
11.095
 20
18.1649
 30
0.0
 40
0.0277778
 41
0.0277778
  0
VERTEX
  8
0
 10
11.1797
 20
18.2108
 30
0.0
 40
0.0277778
 41
0.0277778
  0
VERTEX
  8
0
 10
11.2734
 20
18.2399
 30
0.0
 40
0.0277778
 41
0.0277778
  0
VERTEX
  8
0
 10
11.3488
 20
18.25
 30
0.0
 40
0.0277778
 41
0.0277778
  0
VERTEX
  8
0
 10
11.374
 20
18.25
 30
0.0
 40
0.0277778
 41
0.0277778
  0
VERTEX
  8
0
 10
38.626
 20
18.25
 30
0.0
 40
0.0277778
 41
0.0277778
  0
VERTEX
  8
0
 10
38.6511
 20
18.25
 30
0.0
 40
0.0277778
 41
0.0277778
  0
VERTEX
  8
0
 10
38.7265
 20
18.2399
 30
0.0
 40
0.0277778
 41
0.0277778
  0
VERTEX
  8
0
 10
38.8201
 20
18.2108
 30
0.0
 40
0.0277778
 41
0.0277778
  0
VERTEX
  8
0
 10
38.905
 20
18.1649
 30
0.0
 40
0.0277778
 41
0.0277778
  0
VERTEX
  8
0
 10
38.9789
 20
18.1039
 30
0.0
 40
0.0277778
 41
0.0277778
  0
VERTEX
  8
0
 10
39.0397
 20
18.03
 30
0.0
 40
0.0277778
 41
0.0277778
  0
VERTEX
  8
0
 10
39.0858
 20
17.9453
 30
0.0
 40
0.0277778
 41
0.0277778
  0
VERTEX
  8
0
 10
39.1149
 20
17.8517
 30
0.0
 40
0.0277778
 41
0.0277778
  0
VERTEX
  8
0
 10
39.125
 20
17.7763
 30
0.0
 40
0.0277778
 41
0.0277778
  0
VERTEX
  8
0
 10
39.125
 20
17.751
 30
0.0
 40
0.0277778
 41
0.0277778
  0
VERTEX
  8
0
 10
39.125
 20
2.24897
 30
0.0
 40
0.0277778
 41
0.0277778
  0
VERTEX
  8
0
 10
39.125
 20
2.22385
 30
0.0
 40
0.0277778
 41
0.0277778
  0
VERTEX
  8
0
 10
39.1149
 20
2.14844
 30
0.0
 40
0.0277778
 41
0.0277778
  0
VERTEX
  8
0
 10
39.0858
 20
2.05474
 30
0.0
 40
0.0277778
 41
0.0277778
  0
VERTEX
  8
0
 10
39.0397
 20
1.97
 30
0.0
 40
0.0277778
 41
0.0277778
  0
VERTEX
  8
0
 10
38.9789
 20
1.89615
 30
0.0
 40
0.0277778
 41
0.0277778
  0
VERTEX
  8
0
 10
38.905
 20
1.83524
 30
0.0
 40
0.0277778
 41
0.0277778
  0
VERTEX
  8
0
 10
38.8201
 20
1.78922
 30
0.0
 40
0.0277778
 41
0.0277778
  0
VERTEX
  8
0
 10
38.7265
 20
1.76014
 30
0.0
 40
0.0277778
 41
0.0277778
  0
VERTEX
  8
0
 10
38.6511
 20
1.75
 30
0.0
 40
0.0277778
 41
0.0277778
  0
VERTEX
  8
0
 10
38.626
 20
1.75
 30
0.0
 40
0.0277778
 41
0.0277778
  0
SEQEND
 8
0
  0
POLYLINE
  8
0
 62
     2
 66
     1
 10
0
 20
0
 30
0.0
 40
5
 41
5
  0
VERTEX
  8
0
 10
0.669217
 20
20.4447
 30
0.0
 40
0.0694444
 41
0.0694444
  0
VERTEX
  8
0
 10
2.85308
 20
20.4447
 30
0.0
 40
0.0694444
 41
0.0694444
  0
SEQEND
 8
0
  0
POLYLINE
  8
0
 62
     250
 66
     1
 10
0
 20
0
 30
0.0
 40
5
 41
5
  0
VERTEX
  8
0
 10
0.622287
 20
24.0135
 30
0.0
 40
0.0694444
 41
0.0694444
  0
VERTEX
  8
0
 10
2.80615
 20
24.0135
 30
0.0
 40
0.0694444
 41
0.0694444
  0
SEQEND
 8
0
  0
ENDSEC
  0
EOF
