  0
SECTION
  2
ENTITIES
  0
LINE
  8
APS_GEOMETRY
 10
-9.702724
 11
14.547276
 20
-5.153409
 21
-5.153409
  0
ARC
  8
APS_GEOMETRY
 10
14.547276
 20
-4.778409
 40
0.375
 50
270.0
 51
0.0
  0
LINE
  8
APS_GEOMETRY
 10
14.922276
 11
14.922276
 20
-4.778409
 21
10.471591
  0
ARC
  8
APS_GEOMETRY
 10
14.547276
 20
10.471591
 40
0.375
 50
0.0
 51
90.0
  0
LINE
  8
APS_GEOMETRY
 10
14.547276
 11
-9.702724
 20
10.846591
 21
10.846591
  0
ARC
  8
APS_GEOMETRY
 10
-9.702724
 20
10.471591
 40
0.375
 50
90.0
 51
180.0
  0
LINE
  8
APS_GEOMETRY
 10
-10.077724
 11
-10.077724
 20
10.471591
 21
-4.778409
  0
ARC
  8
APS_GEOMETRY
 10
-9.702724
 20
-4.778409
 40
0.375
 50
180.0
 51
270.0
  0
LINE
  8
APS_GEOMETRY
 10
-9.577724
 11
14.422276
 20
-4.903409
 21
-4.903409
  0
ARC
  8
APS_GEOMETRY
 10
14.422276
 20
-4.653409
 40
0.25
 50
270.0
 51
0.0
  0
LINE
  8
APS_GEOMETRY
 10
14.672276
 11
14.672276
 20
-4.653409
 21
10.346591
  0
ARC
  8
APS_GEOMETRY
 10
14.422276
 20
10.346591
 40
0.25
 50
0.0
 51
90.0
  0
LINE
  8
APS_GEOMETRY
 10
14.422276
 11
-9.577724
 20
10.596591
 21
10.596591
  0
ARC
  8
APS_GEOMETRY
 10
-9.577724
 20
10.346591
 40
0.25
 50
90.0
 51
180.0
  0
LINE
  8
APS_GEOMETRY
 10
-9.827724
 11
-9.827724
 20
10.346591
 21
-4.653409
  0
ARC
  8
APS_GEOMETRY
 10
-9.577724
 20
-4.653409
 40
0.25
 50
180.0
 51
270.0
  0
LINE
  8
APS_GEOMETRY
 10
-10.921424
 11
15.765976
 20
-6.153409
 21
-6.153409
  0
ARC
  8
APS_GEOMETRY
 10
15.765976
 20
-5.965909
 40
0.1875
 50
270.0
 51
0.0
  0
LINE
  8
APS_GEOMETRY
 10
15.953476
 11
15.953476
 20
-5.965909
 21
11.659091
  0
ARC
  8
APS_GEOMETRY
 10
15.765976
 20
11.659091
 40
0.1875
 50
0.0
 51
90.0
  0
LINE
  8
APS_GEOMETRY
 10
15.765976
 11
-10.921424
 20
11.846591
 21
11.846591
  0
ARC
  8
APS_GEOMETRY
 10
-10.921424
 20
11.659091
 40
0.1875
 50
90.0
 51
180.0
  0
LINE
  8
APS_GEOMETRY
 10
-11.108924
 11
-11.108924
 20
11.659091
 21
-5.965909
  0
ARC
  8
APS_GEOMETRY
 10
-10.921424
 20
-5.965909
 40
0.1875
 50
180.0
 51
270.0
  0
ENDSEC
  0
EOF
