  0
SECTION
  2
ENTITIES
  0
LINE
  8
APS_GEOMETRY
 10
-8.776804
 11
13.723196
 20
-5.681296
 21
-5.681296
  0
ARC
  8
APS_GEOMETRY
 10
13.723196
 20
-5.431296
 40
0.25
 50
270.0
 51
0.0
  0
LINE
  8
APS_GEOMETRY
 10
13.973196
 11
13.973196
 20
-5.431296
 21
12.068704
  0
ARC
  8
APS_GEOMETRY
 10
13.723196
 20
12.068704
 40
0.25
 50
0.0
 51
90.0
  0
LINE
  8
APS_GEOMETRY
 10
13.723196
 11
-8.776804
 20
12.318704
 21
12.318704
  0
ARC
  8
APS_GEOMETRY
 10
-8.776804
 20
12.068704
 40
0.25
 50
90.0
 51
180.0
  0
LINE
  8
APS_GEOMETRY
 10
-9.026804
 11
-9.026804
 20
12.068704
 21
-5.431296
  0
ARC
  8
APS_GEOMETRY
 10
-8.776804
 20
-5.431296
 40
0.25
 50
180.0
 51
270.0
  0
LINE
  8
APS_GEOMETRY
 10
-7.651804
 11
12.598196
 20
-4.681296
 21
-4.681296
  0
ARC
  8
APS_GEOMETRY
 10
12.598196
 20
-4.306296
 40
0.375
 50
270.0
 51
0.0
  0
LINE
  8
APS_GEOMETRY
 10
12.973196
 11
12.973196
 20
-4.306296
 21
10.943704
  0
ARC
  8
APS_GEOMETRY
 10
12.598196
 20
10.943704
 40
0.375
 50
0.0
 51
90.0
  0
LINE
  8
APS_GEOMETRY
 10
12.598196
 11
-7.651804
 20
11.318704
 21
11.318704
  0
ARC
  8
APS_GEOMETRY
 10
-7.651804
 20
10.943704
 40
0.375
 50
90.0
 51
180.0
  0
LINE
  8
APS_GEOMETRY
 10
-8.026804
 11
-8.026804
 20
10.943704
 21
-4.306296
  0
ARC
  8
APS_GEOMETRY
 10
-7.651804
 20
-4.306296
 40
0.375
 50
180.0
 51
270.0
  0
LINE
  8
APS_GEOMETRY
 10
-7.651804
 11
12.598196
 20
-4.431296
 21
-4.431296
  0
ARC
  8
APS_GEOMETRY
 10
12.598196
 20
-4.306296
 40
0.125
 50
270.0
 51
0.0
  0
LINE
  8
APS_GEOMETRY
 10
12.723196
 11
12.723196
 20
-4.306296
 21
10.943704
  0
ARC
  8
APS_GEOMETRY
 10
12.598196
 20
10.943704
 40
0.125
 50
0.0
 51
90.0
  0
LINE
  8
APS_GEOMETRY
 10
12.598196
 11
-7.651804
 20
11.068704
 21
11.068704
  0
ARC
  8
APS_GEOMETRY
 10
-7.651804
 20
10.943704
 40
0.125
 50
90.0
 51
180.0
  0
LINE
  8
APS_GEOMETRY
 10
-7.776804
 11
-7.776804
 20
10.943704
 21
-4.306296
  0
ARC
  8
APS_GEOMETRY
 10
-7.651804
 20
-4.306296
 40
0.125
 50
180.0
 51
270.0
  0
ENDSEC
  0
EOF
