  0
SECTION
  2
ENTITIES
  0
LINE
  8
APS_GEOMETRY
 10
-15.117058
 11
16.007942
 20
-4.392898
 21
-4.392898
  0
ARC
  8
APS_GEOMETRY
 10
16.007942
 20
-4.205398
 40
0.1875
 50
270.0
 51
0.0
  0
LINE
  8
APS_GEOMETRY
 10
16.195442
 11
16.195442
 20
-4.205398
 21
13.544602
  0
ARC
  8
APS_GEOMETRY
 10
16.007942
 20
13.544602
 40
0.1875
 50
0.0
 51
90.0
  0
LINE
  8
APS_GEOMETRY
 10
16.007942
 11
-15.117058
 20
13.732102
 21
13.732102
  0
ARC
  8
APS_GEOMETRY
 10
-15.117058
 20
13.544602
 40
0.1875
 50
90.0
 51
180.0
  0
LINE
  8
APS_GEOMETRY
 10
-15.304558
 11
-15.304558
 20
13.544602
 21
-4.205398
  0
ARC
  8
APS_GEOMETRY
 10
-15.117058
 20
-4.205398
 40
0.1875
 50
180.0
 51
270.0
  0
LINE
  8
APS_GEOMETRY
 10
-13.929558
 11
14.820442
 20
-3.392898
 21
-3.392898
  0
ARC
  8
APS_GEOMETRY
 10
14.820442
 20
-3.017898
 40
0.375
 50
270.0
 51
0.0
  0
LINE
  8
APS_GEOMETRY
 10
15.195442
 11
15.195442
 20
-3.017898
 21
12.357102
  0
ARC
  8
APS_GEOMETRY
 10
14.820442
 20
12.357102
 40
0.375
 50
0.0
 51
90.0
  0
LINE
  8
APS_GEOMETRY
 10
14.820442
 11
-13.929558
 20
12.732102
 21
12.732102
  0
ARC
  8
APS_GEOMETRY
 10
-13.929558
 20
12.357102
 40
0.375
 50
90.0
 51
180.0
  0
LINE
  8
APS_GEOMETRY
 10
-14.304558
 11
-14.304558
 20
12.357102
 21
-3.017898
  0
ARC
  8
APS_GEOMETRY
 10
-13.929558
 20
-3.017898
 40
0.375
 50
180.0
 51
270.0
  0
LINE
  8
APS_GEOMETRY
 10
-13.929558
 11
14.820442
 20
-3.142898
 21
-3.142898
  0
ARC
  8
APS_GEOMETRY
 10
14.820442
 20
-3.017898
 40
0.125
 50
270.0
 51
0.0
  0
LINE
  8
APS_GEOMETRY
 10
14.945442
 11
14.945442
 20
-3.017898
 21
12.357102
  0
ARC
  8
APS_GEOMETRY
 10
14.820442
 20
12.357102
 40
0.125
 50
0.0
 51
90.0
  0
LINE
  8
APS_GEOMETRY
 10
14.820442
 11
-13.929558
 20
12.482102
 21
12.482102
  0
ARC
  8
APS_GEOMETRY
 10
-13.929558
 20
12.357102
 40
0.125
 50
90.0
 51
180.0
  0
LINE
  8
APS_GEOMETRY
 10
-14.054558
 11
-14.054558
 20
12.357102
 21
-3.017898
  0
ARC
  8
APS_GEOMETRY
 10
-13.929558
 20
-3.017898
 40
0.125
 50
180.0
 51
270.0
  0
ENDSEC
  0
EOF
