  0
SECTION
  2
HEADER
  0
ENDSEC
  0
SECTION
  2
TABLES
  0
TABLE
  2
LTYPE
  0
LTYPE
  2
Continuous
 70
0
  3
Solid line
 72
65
 73
0
 40
0.000000
  0
LTYPE
  2
DASHDOT2
 70
0
  3
Dash dot (.5x) _._._._._._._._._._._._._._._.
 72
65
 73
4
 40
0.500000
 49
0.250000
 49
-0.125000
 49
0.000000
 49
-0.125000
  0
LTYPE
  2
DASHED
 70
0
  3
Dashed _ _ _ _ _ _ _ _ _ _ _ _ _ _ _
 72
65
 73
2
 40
0.75
 49
0.5
 49
-0.25
  0
ENDTAB
  0
TABLE
  2
LAYER
  0
LAYER
  2
CABINETS
 70
0
 62
251
  6
CONTINUOUS
  0
LAYER
  2
BLUE_WALLS
 70
0
 62
5
  6
CONTINUOUS
  0
LAYER
  2
BLACK_TEXT
 70
0
 62
7
  6
CONTINUOUS
  0
LAYER
  2
RED_POLISHED
 70
0
 62
1
  6
CONTINUOUS
  0
LAYER
  2
AQUA_FORMICA
 70
0
 62
4
  6
CONTINUOUS
  0
LAYER
  2
GRAY_SEAM
 70
0
 62
253
  6
CONTINUOUS
  0
LAYER
  2
WOOD
 70
0
 62
26
  6
DASHED
  0
LAYER
  2
TRUE_WALL
 70
0
 62
210
  6
CONTINUOUS
  0
LAYER
  2
CUTOUT
 70
0
 62
30
  6
CONTINUOUS
  0
LAYER
  2
GRANITE_
 70
0
 62
50
  6
CONTINUOUS
  0
LAYER
  2
TILE
 70
0
 62
31
  6
CONTINUOUS
  0
ENDTAB
  0
ENDSEC
  0
SECTION
  2
ENTITIES
  0
POINT
  8
BLACK_TEXT
 10
0
 20
0
 30
0
 62
7
  0
LINE
  8
BLUE_WALLS
 10
-15.00029016
 20
16.6247382
 30
0
 11
-14.99999345
 21
-0.3752618
 31
0
 62
5
  0
LINE
  8
BLUE_WALLS
 10
14.99970984
 20
16.6252618
 30
0
 11
15.00000654
 21
-0.3747382
 31
0
 62
5
  0
LINE
  8
BLUE_WALLS
 10
-15.00029016
 20
16.6247382
 30
0
 11
14.99970984
 21
16.6252618
 31
0
 62
5
  0
LINE
  8
BLUE_WALLS
 10
-14.99999345
 20
-0.3752618
 30
0
 11
15.00000654
 21
-0.3747382
 31
0
 62
5
  0
LINE
  8
RED_POLISHED
 10
14.62472511
 20
15.75025525
 30
0
 11
14.62499127
 21
0.50025525
 31
0
 62
1
  0
LINE
  8
RED_POLISHED
 10
-14.125
 20
-0.00024653
 30
0
 11
14.125
 21
0.00024653
 31
0
 62
1
  0
LINE
  8
RED_POLISHED
 10
-14.62527489
 20
15.74974474
 30
0
 11
-14.62500872
 21
0.49974475
 31
0
 62
1
  0
LINE
  8
RED_POLISHED
 10
-14.12528361
 20
16.24975347
 30
0
 11
14.12471638
 21
16.25024653
 31
0
 62
1
  0
LINE
  8
BLACK_TEXT
 10
-16.00030761
 20
17.62472074
 30
0
 11
-15.999976
 21
-1.37527925
 31
0
 62
7
  0
LINE
  8
BLACK_TEXT
 10
-15.999976
 20
-1.37527925
 30
0
 11
16.000024
 21
-1.37472075
 31
0
 62
7
  0
LINE
  8
BLACK_TEXT
 10
15.99969238
 20
17.62527925
 30
0
 11
16.000024
 21
-1.37472075
 31
0
 62
7
  0
LINE
  8
BLACK_TEXT
 10
-16.00030761
 20
17.62472074
 30
0
 11
15.99969238
 21
17.62527925
 31
0
 62
7
  0
ARC
  8
BLACK_TEXT
 10
14.12472511
 20
15.75024653
 30
0
 40
0.5
 50
0.001
 51
90.001
 62
7
  0
ARC
  8
BLACK_TEXT
 10
14.12499127
 20
0.50024653
 30
0
 40
0.5
 50
270.001
 51
360.001
 62
7
  0
ARC
  8
BLACK_TEXT
 10
-14.12500872
 20
0.49975347
 30
0
 40
0.5
 50
180.001
 51
270.001
 62
7
  0
ARC
  8
BLACK_TEXT
 10
-14.12527489
 20
15.74975347
 30
0
 40
0.5
 50
90.001
 51
180.001
 62
7
  0
TEXT
  8
BLACK_TEXT
 10
-9.54742306
 20
11.23095176
 30
0
 11
-9.54742306
 21
11.23095176
 31
0
 72
0
 73
3
 40
1.4
  1
AMIR NEW
 50
0
 62
7
  0
TEXT
  8
BLACK_TEXT
 10
-9.54736844
 20
8.10161158
 30
0
 11
-9.54736844
 21
8.10161158
 31
0
 72
0
 73
3
 40
1.4
  1
3/4 RADIUS
 50
0
 62
7
  0
TEXT
  8
BLACK_TEXT
 10
-9.54731382
 20
4.97227141
 30
0
 11
-9.54731382
 21
4.97227141
 31
0
 72
0
 73
3
 40
1.4
  1
SINGLE
 50
0
 62
7
  0
LINE
  8
BLACK_TEXT
 10
-16.00038411
 20
22.00191422
 30
0
 11
-16.00031429
 21
18.00191423
 31
0
 62
7
  0
LINE
  8
BLACK_TEXT
 10
15.99961636
 20
22.00247278
 30
0
 11
15.99968618
 21
18.00247279
 31
0
 62
7
  0
LINE
  8
BLACK_TEXT
 10
-3.07435051
 20
20.00213985
 30
0
 11
-16.0003492
 21
20.00191423
 31
0
 62
7
  0
LINE
  8
BLACK_TEXT
 10
3.07365259
 20
20.00224716
 30
0
 11
15.99965127
 21
20.00247279
 31
0
 62
7
  0
TEXT
  8
BLACK_TEXT
 10
-0.00034896
 20
20.00219351
 30
0
 11
-0.00034896
 21
20.00219351
 31
0
 72
1
 73
2
 40
1.4
  1
32"
 50
0
 62
7
  0
LINE
  8
BLACK_TEXT
 10
21.09748465
 20
-1.3746316
 30
0
 11
17.09748465
 21
-1.37470144
 31
0
 62
7
  0
LINE
  8
BLACK_TEXT
 10
21.0971529
 20
17.62536876
 30
0
 11
17.0971529
 21
17.62529892
 31
0
 62
7
  0
LINE
  8
BLACK_TEXT
 10
19.09737245
 20
5.05133211
 30
0
 11
19.09748465
 21
-1.37466652
 31
0
 62
7
  0
LINE
  8
BLACK_TEXT
 10
19.0972651
 20
11.19933521
 30
0
 11
19.0971529
 21
17.62533384
 31
0
 62
7
  0
TEXT
  8
BLACK_TEXT
 10
19.09731878
 20
8.12533366
 30
0
 11
19.09731878
 21
8.12533366
 31
0
 72
1
 73
2
 40
1.4
  1
19"
 50
90
 62
7
  0
LINE
  8
BLACK_TEXT
 10
-15.00027736
 20
15.90577469
 30
0
 11
-15.00020761
 21
11.90577469
 31
0
 62
7
  0
LINE
  8
BLACK_TEXT
 10
14.99972264
 20
15.9062978
 30
0
 11
14.99979238
 21
11.9062978
 31
0
 62
7
  0
LINE
  8
BLACK_TEXT
 10
-3.07424404
 20
13.90598264
 30
0
 11
-15.00024249
 21
13.90577469
 31
0
 62
7
  0
LINE
  8
BLACK_TEXT
 10
3.07375906
 20
13.90608985
 30
0
 11
14.99975751
 21
13.9062978
 31
0
 62
7
  0
TEXT
  8
BLACK_TEXT
 10
-0.00024249
 20
13.90603625
 30
0
 11
-0.00024249
 21
13.90603625
 31
0
 72
1
 73
2
 40
1.4
  1
30"
 50
0
 62
7
  0
LINE
  8
BLACK_TEXT
 10
-14.07884603
 20
-0.37524568
 30
0
 11
-10.07884603
 21
-0.37517588
 31
0
 62
7
  0
LINE
  8
BLACK_TEXT
 10
-14.07914268
 20
16.62475457
 30
0
 11
-10.07914268
 21
16.62482437
 31
0
 62
7
  0
LINE
  8
BLACK_TEXT
 10
-12.07894072
 20
5.05078779
 30
0
 11
-12.07884603
 21
-0.37521078
 31
0
 62
7
  0
LINE
  8
BLACK_TEXT
 10
-12.079048
 20
11.19879089
 30
0
 11
-12.07914268
 21
16.62478947
 31
0
 62
7
  0
TEXT
  8
BLACK_TEXT
 10
-12.07899436
 20
8.12478934
 30
0
 11
-12.07899436
 21
8.12478934
 31
0
 72
1
 73
2
 40
1.4
  1
17"
 50
90
 62
7
  0
LINE
  8
BLACK_TEXT
 10
9.125
 20
0.00016076
 30
0
 11
13.125
 21
0.00022938
 31
0
 62
7
  0
LINE
  8
BLACK_TEXT
 10
9.12472127
 20
16.25016076
 30
0
 11
13.12472127
 21
16.25022937
 31
0
 62
7
  0
LINE
  8
BLACK_TEXT
 10
11.12495236
 20
2.77775673
 30
0
 11
11.125
 21
0.00019507
 31
0
 62
7
  0
LINE
  8
BLACK_TEXT
 10
11.12476891
 20
13.4726334
 30
0
 11
11.12472127
 21
16.25019507
 31
0
 62
7
  0
TEXT
  8
BLACK_TEXT
 10
11.12486063
 20
8.12519507
 30
0
 11
11.12486063
 21
8.12519507
 31
0
 72
1
 73
2
 40
1.4
  1
16 1/4"
 50
90
 62
7
  0
LINE
  8
BLACK_TEXT
 10
-14.62509599
 20
4.49974963
 30
0
 11
-14.62502618
 21
0.49974963
 31
0
 62
7
  0
LINE
  8
BLACK_TEXT
 10
14.624904
 20
4.50026014
 30
0
 11
14.62497382
 21
0.50026014
 31
0
 62
7
  0
LINE
  8
BLACK_TEXT
 10
-5.34749942
 20
2.49991155
 30
0
 11
-14.62506108
 21
2.49974963
 31
0
 62
7
  0
LINE
  8
BLACK_TEXT
 10
5.34737725
 20
2.50009821
 30
0
 11
14.62493891
 21
2.50026014
 31
0
 62
7
  0
TEXT
  8
BLACK_TEXT
 10
-6.109E-05
 20
2.50000488
 30
0
 11
-6.109E-05
 21
2.50000488
 31
0
 72
1
 73
2
 40
1.4
  1
29 1/4"
 50
0
 62
7
  0
ENDSEC
  0
EOF
