  0
SECTION
  2
ENTITIES
  0
LINE
  8
APS_GEOMETRY
 10
-32.165437
 11
-0.665437
 20
5.5
 21
5.5
  0
ARC
  8
APS_GEOMETRY
 10
-0.665437
 20
5.75
 40
0.25
 50
270.0
 51
0.0
  0
LINE
  8
APS_GEOMETRY
 10
-0.415437
 11
-0.415437
 20
5.75
 21
24.25
  0
ARC
  8
APS_GEOMETRY
 10
-0.665437
 20
24.25
 40
0.25
 50
0.0
 51
90.0
  0
LINE
  8
APS_GEOMETRY
 10
-0.665437
 11
-32.165437
 20
24.5
 21
24.5
  0
ARC
  8
APS_GEOMETRY
 10
-32.165437
 20
24.25
 40
0.25
 50
90.0
 51
180.0
  0
LINE
  8
APS_GEOMETRY
 10
-32.415437
 11
-32.415437
 20
24.25
 21
5.75
  0
ARC
  8
APS_GEOMETRY
 10
-32.165437
 20
5.75
 40
0.25
 50
180.0
 51
270.0
  0
LINE
  8
APS_GEOMETRY
 10
-31.102937
 11
-1.727937
 20
6.5
 21
6.5
  0
ARC
  8
APS_GEOMETRY
 10
-1.727937
 20
6.8125
 40
0.3125
 50
270.0
 51
0.0
  0
LINE
  8
APS_GEOMETRY
 10
-1.415437
 11
-1.415437
 20
6.8125
 21
23.1875
  0
ARC
  8
APS_GEOMETRY
 10
-1.727937
 20
23.1875
 40
0.3125
 50
0.0
 51
90.0
  0
LINE
  8
APS_GEOMETRY
 10
-1.727937
 11
-31.102937
 20
23.5
 21
23.5
  0
ARC
  8
APS_GEOMETRY
 10
-31.102937
 20
23.1875
 40
0.3125
 50
90.0
 51
180.0
  0
LINE
  8
APS_GEOMETRY
 10
-31.415437
 11
-31.415437
 20
23.1875
 21
6.8125
  0
ARC
  8
APS_GEOMETRY
 10
-31.102937
 20
6.8125
 40
0.3125
 50
180.0
 51
270.0
  0
LINE
  8
APS_GEOMETRY
 10
-31.102937
 11
-1.727937
 20
6.75
 21
6.75
  0
ARC
  8
APS_GEOMETRY
 10
-1.727937
 20
6.8125
 40
0.0625
 50
270.0
 51
0.0
  0
LINE
  8
APS_GEOMETRY
 10
-1.665437
 11
-1.665437
 20
6.8125
 21
23.1875
  0
ARC
  8
APS_GEOMETRY
 10
-1.727937
 20
23.1875
 40
0.0625
 50
0.0
 51
90.0
  0
LINE
  8
APS_GEOMETRY
 10
-1.727937
 11
-31.102937
 20
23.25
 21
23.25
  0
ARC
  8
APS_GEOMETRY
 10
-31.102937
 20
23.1875
 40
0.0625
 50
90.0
 51
180.0
  0
LINE
  8
APS_GEOMETRY
 10
-31.165437
 11
-31.165437
 20
23.1875
 21
6.8125
  0
ARC
  8
APS_GEOMETRY
 10
-31.102937
 20
6.8125
 40
0.0625
 50
180.0
 51
270.0
  0
ENDSEC
  0
EOF
