  0
SECTION
  2
ENTITIES
  0
LINE
  8
APS_GEOMETRY
 10
-11.948602
 11
11.801398
 20
-7.922171
 21
-7.922171
  0
ARC
  8
APS_GEOMETRY
 10
11.801398
 20
-4.797171
 40
3.125
 50
270.0
 51
0.0
  0
LINE
  8
APS_GEOMETRY
 10
14.926398
 11
14.926398
 20
-4.797171
 21
5.577829
  0
ARC
  8
APS_GEOMETRY
 10
11.801398
 20
5.577829
 40
3.125
 50
0.0
 51
90.0
  0
LINE
  8
APS_GEOMETRY
 10
11.801398
 11
-11.948602
 20
8.702829
 21
8.702829
  0
ARC
  8
APS_GEOMETRY
 10
-11.948602
 20
5.577829
 40
3.125
 50
90.0
 51
180.0
  0
LINE
  8
APS_GEOMETRY
 10
-15.073602
 11
-15.073602
 20
5.577829
 21
-4.797171
  0
ARC
  8
APS_GEOMETRY
 10
-11.948602
 20
-4.797171
 40
3.125
 50
180.0
 51
270.0
  0
LINE
  8
APS_GEOMETRY
 10
-11.948602
 11
11.801398
 20
-7.672171
 21
-7.672171
  0
ARC
  8
APS_GEOMETRY
 10
11.801398
 20
-4.797171
 40
2.875
 50
270.0
 51
0.0
  0
LINE
  8
APS_GEOMETRY
 10
14.676398
 11
14.676398
 20
-4.797171
 21
5.577829
  0
ARC
  8
APS_GEOMETRY
 10
11.801398
 20
5.577829
 40
2.875
 50
0.0
 51
90.0
  0
LINE
  8
APS_GEOMETRY
 10
11.801398
 11
-11.948602
 20
8.452829
 21
8.452829
  0
ARC
  8
APS_GEOMETRY
 10
-11.948602
 20
5.577829
 40
2.875
 50
90.0
 51
180.0
  0
LINE
  8
APS_GEOMETRY
 10
-14.823602
 11
-14.823602
 20
5.577829
 21
-4.797171
  0
ARC
  8
APS_GEOMETRY
 10
-11.948602
 20
-4.797171
 40
2.875
 50
180.0
 51
270.0
  0
LINE
  8
CONSTRUCTION
 10
15.895098
 11
15.895098
 20
-4.796671
 21
5.577329
  0
ARC
  8
CONSTRUCTION
 10
11.832098
 20
5.577329
 40
4.063
 50
0.0
 51
90.0
  0
LINE
  8
CONSTRUCTION
 10
11.832098
 11
-11.979302
 20
9.640329
 21
9.640329
  0
ARC
  8
CONSTRUCTION
 10
-11.979302
 20
5.577329
 40
4.063
 50
90.0
 51
180.0
  0
LINE
  8
CONSTRUCTION
 10
-16.042302
 11
-16.042302
 20
5.577329
 21
-4.796671
  0
ARC
  8
CONSTRUCTION
 10
-11.979302
 20
-4.796671
 40
4.063
 50
180.0
 51
270.0
  0
LINE
  8
CONSTRUCTION
 10
-11.979302
 11
11.832098
 20
-8.859671
 21
-8.859671
  0
ARC
  8
CONSTRUCTION
 10
11.832098
 20
-4.796671
 40
4.063
 50
270.0
 51
360.0
  0
ENDSEC
  0
EOF
