  0
SECTION
  2
ENTITIES
  0
ARC
  8
CONSTRUCTION
 10
-5.168027
 20
-4.223668
 40
4.0
 50
270.9318
 51
358.832695
  0
ARC
  8
CONSTRUCTION
 10
-212.453125
 20
0.0
 40
211.328125
 50
358.832695
 51
1.167305
  0
ARC
  8
CONSTRUCTION
 10
-5.168027
 20
4.223668
 40
4.0
 50
1.167305
 51
89.0682
  0
ARC
  8
CONSTRUCTION
 10
-8.40625
 20
-85.714404
 40
93.995604
 50
87.986049
 51
92.191208
  0
ARC
  8
CONSTRUCTION
 10
-11.855557
 20
4.434235
 40
3.781
 50
92.191208
 51
177.877473
  0
ARC
  8
CONSTRUCTION
 10
107.787992
 20
0.0
 40
123.506692
 50
177.877473
 51
182.122527
  0
ARC
  8
CONSTRUCTION
 10
-11.855557
 20
-4.434235
 40
3.781
 50
182.122527
 51
267.808792
  0
ARC
  8
CONSTRUCTION
 10
-8.40625
 20
85.714404
 40
93.995604
 50
267.808792
 51
272.013951
  0
ARC
  8
CONSTRUCTION
 10
4.043027
 20
4.223668
 40
4.0
 50
90.9318
 51
178.832695
  0
ARC
  8
CONSTRUCTION
 10
211.328125
 20
0.0
 40
211.328125
 50
178.832695
 51
181.167305
  0
ARC
  8
CONSTRUCTION
 10
4.043027
 20
-4.223668
 40
4.0
 50
181.167305
 51
269.0682
  0
ARC
  8
CONSTRUCTION
 10
7.28125
 20
85.714404
 40
93.995604
 50
267.986049
 51
272.191208
  0
ARC
  8
CONSTRUCTION
 10
10.730557
 20
-4.434235
 40
3.781
 50
272.191208
 51
357.877473
  0
ARC
  8
CONSTRUCTION
 10
-108.912992
 20
0.0
 40
123.506692
 50
357.877473
 51
2.122527
  0
ARC
  8
CONSTRUCTION
 10
10.730557
 20
4.434235
 40
3.781
 50
2.122527
 51
87.808792
  0
ARC
  8
CONSTRUCTION
 10
7.28125
 20
-85.714404
 40
93.995604
 50
87.808792
 51
92.013951
  0
LINE
  8
CONSTRUCTION
 10
-13.78125
 11
12.65625
 20
-9.25
 21
-9.25
  0
LINE
  8
CONSTRUCTION
 10
12.65625
 11
15.59375
 20
-9.25
 21
-6.375
  0
LINE
  8
CONSTRUCTION
 10
15.59375
 11
15.59375
 20
-6.375
 21
6.375
  0
LINE
  8
CONSTRUCTION
 10
15.59375
 11
12.65625
 20
6.375
 21
9.25
  0
LINE
  8
CONSTRUCTION
 10
12.65625
 11
-13.78125
 20
9.25
 21
9.25
  0
LINE
  8
CONSTRUCTION
 10
-13.78125
 11
-16.71875
 20
9.25
 21
6.375
  0
LINE
  8
CONSTRUCTION
 10
-16.71875
 11
-16.71875
 20
6.375
 21
-6.375
  0
LINE
  8
CONSTRUCTION
 10
-16.71875
 11
-13.78125
 20
-6.375
 21
-9.25
  0
LINE
  8
APS_GEOMETRY
 10
7.426648
 11
-8.551648
 20
-8.031088
 21
-8.031088
  0
ARC
  8
APS_GEOMETRY
 10
-8.551648
 20
78.407241
 40
86.438329
 50
267.720034
 51
270.0
  0
ARC
  8
APS_GEOMETRY
 10
-11.855557
 20
-4.434235
 40
3.531
 50
182.122527
 51
267.811878
  0
ARC
  8
APS_GEOMETRY
 10
107.787992
 20
0.0
 40
123.256692
 50
177.877473
 51
182.122527
  0
ARC
  8
APS_GEOMETRY
 10
-11.855557
 20
4.434235
 40
3.531
 50
92.188122
 51
177.877473
  0
ARC
  8
APS_GEOMETRY
 10
-8.551648
 20
-78.407241
 40
86.438329
 50
90.0
 51
92.279966
  0
LINE
  8
APS_GEOMETRY
 10
-8.551648
 11
7.426648
 20
8.031088
 21
8.031088
  0
ARC
  8
APS_GEOMETRY
 10
7.426648
 20
-78.407241
 40
86.438329
 50
87.720034
 51
90.0
  0
ARC
  8
APS_GEOMETRY
 10
10.730557
 20
4.434235
 40
3.531
 50
2.122527
 51
87.811878
  0
ARC
  8
APS_GEOMETRY
 10
-108.912992
 20
0.0
 40
123.256692
 50
357.877473
 51
2.122527
  0
ARC
  8
APS_GEOMETRY
 10
10.730557
 20
-4.434235
 40
3.531
 50
272.188122
 51
357.877473
  0
ARC
  8
APS_GEOMETRY
 10
7.426648
 20
78.407241
 40
86.438329
 50
270.0
 51
272.279966
  0
ENDSEC
  0
EOF
