999
dxfrw 0.6.3
  0
SECTION
  2
HEADER
  9
$ACADVER
  1
AC1021
  9
$DWGCODEPAGE
  3
ANSI_1252
  9
$INSBASE
 10
0
 20
0
 30
0
  9
$EXTMIN
 10
10000000000
 20
10000000000
 30
0
  9
$EXTMAX
 10
-10000000000
 20
-10000000000
 30
0
  9
$LIMMIN
 10
0
 20
0
  9
$LIMMAX
 10
420
 20
297
  9
$ORTHOMODE
 70
    0
  9
$REGENMODE
 70
    1
  9
$FILLMODE
 70
    1
  9
$QTEXTMODE
 70
    0
  9
$MIRRTEXT
 70
    0
  9
$LTSCALE
 40
1
  9
$ATTMODE
 70
    0
  9
$TEXTSIZE
 40
2.5
  9
$TRACEWID
 40
15.68
  9
$TEXTSTYLE
  7
STANDARD
  9
$CLAYER
  8
0
  9
$CELTYPE
  6
BYLAYER
  9
$CECOLOR
 62
  256
  9
$CELTSCALE
 40
1
  9
$DISPSILH
 70
    0
  9
$DIMSCALE
 40
2.5
  9
$DIMASZ
 40
0.1
  9
$DIMEXO
 40
0.025
  9
$DIMDLI
 40
3.75
  9
$DIMRND
 40
0
  9
$DIMDLE
 40
0
  9
$DIMEXE
 40
0.05
  9
$DIMTP
 40
0
  9
$DIMTM
 40
0
  9
$DIMTXT
 40
0.1
  9
$DIMCEN
 40
2.5
  9
$DIMTSZ
 40
0
  9
$DIMTOL
 70
    0
  9
$DIMLIM
 70
    0
  9
$DIMTIH
 70
    0
  9
$DIMTOH
 70
    0
  9
$DIMSE1
 70
    0
  9
$DIMSE2
 70
    0
  9
$DIMTAD
 70
    1
  9
$DIMZIN
 70
    8
  9
$DIMBLK
  1

  9
$DIMASO
 70
    1
  9
$DIMSHO
 70
    1
  9
$DIMPOST
  1

  9
$DIMAPOST
  1

  9
$DIMALT
 70
    0
  9
$DIMALTD
 70
    3
  9
$DIMALTF
 40
0.03937
  9
$DIMLFAC
 40
1
  9
$DIMTOFL
 70
    1
  9
$DIMTVP
 40
0
  9
$DIMTIX
 70
    0
  9
$DIMSOXD
 70
    0
  9
$DIMSAH
 70
    0
  9
$DIMBLK1
  1

  9
$DIMBLK2
  1

  9
$DIMSTYLE
  2
Standard
  9
$DIMCLRD
 70
    0
  9
$DIMCLRE
 70
    0
  9
$DIMCLRT
 70
    0
  9
$DIMTFAC
 40
1
  9
$DIMGAP
 40
0.025
  9
$DIMJUST
 70
    0
  9
$DIMSD1
 70
    0
  9
$DIMSD2
 70
    0
  9
$DIMTOLJ
 70
    0
  9
$DIMTZIN
 70
    8
  9
$DIMALTZ
 70
    0
  9
$DIMALTTZ
 70
    0
  9
$DIMUPT
 70
    0
  9
$DIMDEC
 70
    2
  9
$DIMTDEC
 70
    2
  9
$DIMALTU
 70
    2
  9
$DIMALTTD
 70
    3
  9
$DIMTXSTY
  7
STANDARD
  9
$DIMAUNIT
 70
    0
  9
$DIMADEC
 70
    0
  9
$DIMALTRND
 40
0
  9
$DIMAZIN
 70
    0
  9
$DIMDSEP
 70
   44
  9
$DIMATFIT
 70
    3
  9
$DIMFRAC
 70
    0
  9
$DIMLDRBLK
  1
STANDARD
  9
$DIMLUNIT
 70
    2
  9
$DIMLWD
 70
   -2
  9
$DIMLWE
 70
   -2
  9
$DIMTMOVE
 70
    0
  9
$DIMFXL
 40
1
  9
$DIMFXLON
 70
    0
  9
$DIMJOGANG
 40
0.7854
  9
$DIMTFILL
 70
    0
  9
$DIMTFILLCLR
 70
    0
  9
$DIMARCSYM
 70
    0
  9
$DIMLTYPE
  6

  9
$DIMLTEX1
  6

  9
$DIMLTEX2
  6

  9
$LUNITS
 70
    2
  9
$LUPREC
 70
    4
  9
$SKETCHINC
 40
1
  9
$FILLETRAD
 40
0
  9
$AUNITS
 70
    0
  9
$AUPREC
 70
    2
  9
$MENU
  1
.
  9
$ELEVATION
 40
0
  9
$PELEVATION
 40
0
  9
$THICKNESS
 40
0
  9
$LIMCHECK
 70
    0
  9
$CHAMFERA
 40
0
  9
$CHAMFERB
 40
0
  9
$CHAMFERC
 40
0
  9
$CHAMFERD
 40
0
  9
$SKPOLY
 70
    0
  9
$USRTIMER
 70
    1
  9
$ANGBASE
 50
0
  9
$ANGDIR
 70
    0
  9
$PDMODE
 70
   34
  9
$PDSIZE
 40
0
  9
$PLINEWID
 40
0
  9
$SPLFRAME
 70
    0
  9
$SPLINETYPE
 70
    2
  9
$SPLINESEGS
 70
    8
  9
$HANDSEED
  5
20000
  9
$SURFTAB1
 70
    6
  9
$SURFTAB2
 70
    6
  9
$SURFTYPE
 70
    6
  9
$SURFU
 70
    6
  9
$SURFV
 70
    6
  9
$UCSBASE
  2

  9
$UCSNAME
  2

  9
$UCSORG
 10
0
 20
0
 30
0
  9
$UCSXDIR
 10
1
 20
0
 30
0
  9
$UCSYDIR
 10
0
 20
1
 30
0
  9
$UCSORTHOREF
  2

  9
$UCSORTHOVIEW
 70
    0
  9
$UCSORGTOP
 10
0
 20
0
 30
0
  9
$UCSORGBOTTOM
 10
0
 20
0
 30
0
  9
$UCSORGLEFT
 10
0
 20
0
 30
0
  9
$UCSORGRIGHT
 10
0
 20
0
 30
0
  9
$UCSORGFRONT
 10
0
 20
0
 30
0
  9
$UCSORGBACK
 10
0
 20
0
 30
0
  9
$PUCSBASE
  2

  9
$PUCSNAME
  2

  9
$PUCSORG
 10
0
 20
0
 30
0
  9
$PUCSXDIR
 10
1
 20
0
 30
0
  9
$PUCSYDIR
 10
0
 20
1
 30
0
  9
$PUCSORTHOREF
  2

  9
$PUCSORTHOVIEW
 70
    0
  9
$PUCSORGTOP
 10
0
 20
0
 30
0
  9
$PUCSORGBOTTOM
 10
0
 20
0
 30
0
  9
$PUCSORGLEFT
 10
0
 20
0
 30
0
  9
$PUCSORGRIGHT
 10
0
 20
0
 30
0
  9
$PUCSORGFRONT
 10
0
 20
0
 30
0
  9
$PUCSORGBACK
 10
0
 20
0
 30
0
  9
$USERI1
 70
    0
  9
$USERI2
 70
    0
  9
$USERI3
 70
    0
  9
$USERI4
 70
    0
  9
$USERI5
 70
    0
  9
$USERR1
 40
0
  9
$USERR2
 40
0
  9
$USERR3
 40
0
  9
$USERR4
 40
0
  9
$USERR5
 40
0
  9
$WORLDVIEW
 70
    1
  9
$SHADEDGE
 70
    3
  9
$SHADEDIF
 70
   70
  9
$TILEMODE
 70
    1
  9
$MAXACTVP
 70
   64
  9
$PINSBASE
 10
0
 20
0
 30
0
  9
$PLIMCHECK
 70
    0
  9
$PEXTMIN
 10
0
 20
0
 30
0
  9
$PEXTMAX
 10
0
 20
0
 30
0
  9
$SNAPSTYLE
 70
    0
  9
$PLIMMIN
 10
0
 20
0
  9
$PLIMMAX
 10
1.212131009518986e-09
 20
1.714299570605422e-09
  9
$UNITMODE
 70
    0
  9
$VISRETAIN
 70
    1
  9
$PLINEGEN
 70
    0
  9
$PSLTSCALE
 70
    1
  9
$TREEDEPTH
 70
 3020
  9
$CMLSTYLE
  2
Standard
  9
$CMLJUST
 70
    0
  9
$CMLSCALE
 40
20
  9
$PROXYGRAPHICS
 70
    1
  9
$MEASUREMENT
 70
    0
  9
$CELWEIGHT
370
   -1
  9
$ENDCAPS
280
    0
  9
$JOINSTYLE
280
    0
  9
$LWDISPLAY
290
    0
  9
$INSUNITS
 70
    1
  9
$HYPERLINKBASE
  1

  9
$STYLESHEET
  1

  9
$XEDIT
290
    1
  9
$CEPSNTYPE
380
    0
  9
$PSTYLEMODE
290
    1
  9
$EXTNAMES
290
    1
  9
$PSVPSCALE
 40
1
  9
$OLESTARTUP
290
    0
  9
$SORTENTS
280
  127
  9
$INDEXCTL
280
    0
  9
$HIDETEXT
280
    1
  9
$XCLIPFRAME
290
    0
  9
$HALOGAP
280
    0
  9
$OBSCOLOR
 70
  257
  9
$OBSLTYPE
280
    0
  9
$INTERSECTIONDISPLAY
280
    0
  9
$INTERSECTIONCOLOR
 70
  257
  9
$DIMASSOC
280
    1
  9
$PROJECTNAME
  1

  9
$CAMERADISPLAY
290
    0
  9
$LENSLENGTH
 40
50
  9
$CAMERAHEIGHT
 40
0
  9
$STEPSPERSEC
 40
2
  9
$STEPSIZE
 40
50
  9
$3DDWFPREC
 40
2
  9
$PSOLWIDTH
 40
5
  9
$PSOLHEIGHT
 40
80
  9
$LOFTANG1
 40
1.570796326794897
  9
$LOFTANG2
 40
1.570796326794897
  9
$LOFTMAG1
 40
0
  9
$LOFTMAG2
 40
0
  9
$LOFTPARAM
 70
    7
  9
$LOFTNORMALS
280
    1
  9
$LATITUDE
 40
1
  9
$LONGITUDE
 40
1
  9
$NORTHDIRECTION
 40
0
  9
$TIMEZONE
 70
-8000
  9
$LIGHTGLYPHDISPLAY
280
    1
  9
$TILEMODELIGHTSYNCH
280
    1
  9
$SOLIDHIST
280
    1
  9
$SHOWHIST
280
    1
  9
$DWFFRAME
280
    2
  9
$DGNFRAME
280
    0
  9
$REALWORLDSCALE
290
    1
  9
$INTERFERECOLOR
 62
    1
  9
$CSHADOW
280
    0
  9
$SHADOWPLANELOCATION
 40
0
  0
ENDSEC
  0
SECTION
  2
CLASSES
  0
ENDSEC
  0
SECTION
  2
TABLES
  0
TABLE
  2
VPORT
  5
8
330
0
100
AcDbSymbolTable
 70
    1
  0
VPORT
  5
31
330
2
100
AcDbSymbolTableRecord
100
AcDbViewportTableRecord
  2
*ACTIVE
 70
    0
 10
0
 20
0
 11
1
 21
1
 12
49.27864628661202
 22
19.09862356082493
 13
0
 23
0
 14
10
 24
10
 15
10
 25
10
 16
0
 26
0
 36
1
 17
0
 27
0
 37
0
 40
49.78234624865575
 41
2.441821247892074
 42
50
 43
0
 44
0
 50
0
 51
0
 71
    0
 72
  100
 73
    1
 74
    3
 75
    0
 76
    1
 77
    0
 78
    0
281
    0
 65
    1
110
0
120
0
130
0
111
1
121
0
131
0
112
0
122
1
132
0
 79
    0
146
0
348
10020
 60
    7
 61
    5
292
1
282
    1
141
0
142
0
 63
  250
421
3358443
  0
ENDTAB
  0
TABLE
  2
LTYPE
  5
5
330
0
100
AcDbSymbolTable
 70
    4
  0
LTYPE
  5
14
330
5
100
AcDbSymbolTableRecord
100
AcDbLinetypeTableRecord
  2
ByBlock
 70
    0
  3

 72
   65
 73
    0
 40
0
  0
LTYPE
  5
15
330
5
100
AcDbSymbolTableRecord
100
AcDbLinetypeTableRecord
  2
ByLayer
 70
    0
  3

 72
   65
 73
    0
 40
0
  0
LTYPE
  5
16
330
5
100
AcDbSymbolTableRecord
100
AcDbLinetypeTableRecord
  2
Continuous
 70
    0
  3
Solid line
 72
   65
 73
    0
 40
0
  0
LTYPE
  5
32
330
5
100
AcDbSymbolTableRecord
100
AcDbLinetypeTableRecord
  2
DOT
 70
    0
  3
Dot . . . . . . . . . . . . . . . . . . . . . .
 72
   65
 73
    2
 40
6.35
 49
0
 74
    0
 49
-6.35
 74
    0
  0
LTYPE
  5
33
330
5
100
AcDbSymbolTableRecord
100
AcDbLinetypeTableRecord
  2
DOTTINY
 70
    0
  3
Dot (.15x) .....................................
 72
   65
 73
    2
 40
0.9525
 49
0
 74
    0
 49
-0.9525
 74
    0
  0
LTYPE
  5
34
330
5
100
AcDbSymbolTableRecord
100
AcDbLinetypeTableRecord
  2
DOT2
 70
    0
  3
Dot (.5x) .....................................
 72
   65
 73
    2
 40
3.175
 49
0
 74
    0
 49
-3.175
 74
    0
  0
LTYPE
  5
35
330
5
100
AcDbSymbolTableRecord
100
AcDbLinetypeTableRecord
  2
DOTX2
 70
    0
  3
Dot (2x) .  .  .  .  .  .  .  .  .  .  .  .  .
 72
   65
 73
    2
 40
12.7
 49
0
 74
    0
 49
-12.7
 74
    0
  0
LTYPE
  5
36
330
5
100
AcDbSymbolTableRecord
100
AcDbLinetypeTableRecord
  2
DASHED
 70
    0
  3
Dashed _ _ _ _ _ _ _ _ _ _ _ _ _ _ _ _ _
 72
   65
 73
    2
 40
19.05
 49
12.7
 74
    0
 49
-6.35
 74
    0
  0
LTYPE
  5
37
330
5
100
AcDbSymbolTableRecord
100
AcDbLinetypeTableRecord
  2
DASHEDTINY
 70
    0
  3
Dashed (.15x) _ _ _ _ _ _ _ _ _ _ _ _ _ _ _ _ _
 72
   65
 73
    2
 40
2.8575
 49
1.905
 74
    0
 49
-0.9525
 74
    0
  0
LTYPE
  5
38
330
5
100
AcDbSymbolTableRecord
100
AcDbLinetypeTableRecord
  2
DASHED2
 70
    0
  3
Dashed (.5x) _ _ _ _ _ _ _ _ _ _ _ _ _ _ _ _ _
 72
   65
 73
    2
 40
9.524999999999999
 49
6.35
 74
    0
 49
-3.175
 74
    0
  0
LTYPE
  5
39
330
5
100
AcDbSymbolTableRecord
100
AcDbLinetypeTableRecord
  2
DASHEDX2
 70
    0
  3
Dashed (2x) ____  ____  ____  ____  ____  ___
 72
   65
 73
    2
 40
38.09999999999999
 49
25.4
 74
    0
 49
-12.7
 74
    0
  0
LTYPE
  5
3A
330
5
100
AcDbSymbolTableRecord
100
AcDbLinetypeTableRecord
  2
DASHDOT
 70
    0
  3
Dash dot __ . __ . __ . __ . __ . __ . __ . __
 72
   65
 73
    4
 40
25.4
 49
12.7
 74
    0
 49
-6.35
 74
    0
 49
0
 74
    0
 49
-6.35
 74
    0
  0
LTYPE
  5
3B
330
5
100
AcDbSymbolTableRecord
100
AcDbLinetypeTableRecord
  2
DASHDOTTINY
 70
    0
  3
Dash dot (.15x) _._._._._._._._._._._._._._._.
 72
   65
 73
    4
 40
3.81
 49
1.905
 74
    0
 49
-0.9525
 74
    0
 49
0
 74
    0
 49
-0.9525
 74
    0
  0
LTYPE
  5
3C
330
5
100
AcDbSymbolTableRecord
100
AcDbLinetypeTableRecord
  2
DASHDOT2
 70
    0
  3
Dash dot (.5x) _._._._._._._._._._._._._._._.
 72
   65
 73
    4
 40
12.7
 49
6.35
 74
    0
 49
-3.175
 74
    0
 49
0
 74
    0
 49
-3.175
 74
    0
  0
LTYPE
  5
3D
330
5
100
AcDbSymbolTableRecord
100
AcDbLinetypeTableRecord
  2
DASHDOTX2
 70
    0
  3
Dash dot (2x) ____  .  ____  .  ____  .  ___
 72
   65
 73
    4
 40
50.8
 49
25.4
 74
    0
 49
-12.7
 74
    0
 49
0
 74
    0
 49
-12.7
 74
    0
  0
LTYPE
  5
3E
330
5
100
AcDbSymbolTableRecord
100
AcDbLinetypeTableRecord
  2
DIVIDE
 70
    0
  3
Divide ____ . . ____ . . ____ . . ____ . . ____
 72
   65
 73
    6
 40
31.75
 49
12.7
 74
    0
 49
-6.35
 74
    0
 49
0
 74
    0
 49
-6.35
 74
    0
 49
0
 74
    0
 49
-6.35
 74
    0
  0
LTYPE
  5
3F
330
5
100
AcDbSymbolTableRecord
100
AcDbLinetypeTableRecord
  2
DIVIDETINY
 70
    0
  3
Divide (.15x) __..__..__..__..__..__..__..__.._
 72
   65
 73
    6
 40
4.7625
 49
1.905
 74
    0
 49
-0.9525
 74
    0
 49
0
 74
    0
 49
-0.9525
 74
    0
 49
0
 74
    0
 49
-0.9525
 74
    0
  0
LTYPE
  5
40
330
5
100
AcDbSymbolTableRecord
100
AcDbLinetypeTableRecord
  2
DIVIDE2
 70
    0
  3
Divide (.5x) __..__..__..__..__..__..__..__.._
 72
   65
 73
    6
 40
15.875
 49
6.35
 74
    0
 49
-3.175
 74
    0
 49
0
 74
    0
 49
-3.175
 74
    0
 49
0
 74
    0
 49
-3.175
 74
    0
  0
LTYPE
  5
41
330
5
100
AcDbSymbolTableRecord
100
AcDbLinetypeTableRecord
  2
DIVIDEX2
 70
    0
  3
Divide (2x) ________  .  .  ________  .  .  _
 72
   65
 73
    6
 40
63.5
 49
25.4
 74
    0
 49
-12.7
 74
    0
 49
0
 74
    0
 49
-12.7
 74
    0
 49
0
 74
    0
 49
-12.7
 74
    0
  0
LTYPE
  5
42
330
5
100
AcDbSymbolTableRecord
100
AcDbLinetypeTableRecord
  2
BORDER
 70
    0
  3
Border __ __ . __ __ . __ __ . __ __ . __ __ .
 72
   65
 73
    6
 40
44.45
 49
12.7
 74
    0
 49
-6.35
 74
    0
 49
12.7
 74
    0
 49
-6.35
 74
    0
 49
0
 74
    0
 49
-6.35
 74
    0
  0
LTYPE
  5
43
330
5
100
AcDbSymbolTableRecord
100
AcDbLinetypeTableRecord
  2
BORDERTINY
 70
    0
  3
Border (.15x) __.__.__.__.__.__.__.__.__.__.__.
 72
   65
 73
    6
 40
6.6675
 49
1.905
 74
    0
 49
-0.9525
 74
    0
 49
1.905
 74
    0
 49
-0.9525
 74
    0
 49
0
 74
    0
 49
-0.9525
 74
    0
  0
LTYPE
  5
44
330
5
100
AcDbSymbolTableRecord
100
AcDbLinetypeTableRecord
  2
BORDER2
 70
    0
  3
Border (.5x) __.__.__.__.__.__.__.__.__.__.__.
 72
   65
 73
    6
 40
22.225
 49
6.35
 74
    0
 49
-3.175
 74
    0
 49
6.35
 74
    0
 49
-3.175
 74
    0
 49
0
 74
    0
 49
-3.175
 74
    0
  0
LTYPE
  5
45
330
5
100
AcDbSymbolTableRecord
100
AcDbLinetypeTableRecord
  2
BORDERX2
 70
    0
  3
Border (2x) ____  ____  .  ____  ____  .  ___
 72
   65
 73
    6
 40
88.89999999999999
 49
25.4
 74
    0
 49
-12.7
 74
    0
 49
25.4
 74
    0
 49
-12.7
 74
    0
 49
0
 74
    0
 49
-12.7
 74
    0
  0
LTYPE
  5
46
330
5
100
AcDbSymbolTableRecord
100
AcDbLinetypeTableRecord
  2
CENTER
 70
    0
  3
Center ____ _ ____ _ ____ _ ____ _ ____ _ ____
 72
   65
 73
    4
 40
50.8
 49
31.75
 74
    0
 49
-6.35
 74
    0
 49
6.35
 74
    0
 49
-6.35
 74
    0
  0
LTYPE
  5
47
330
5
100
AcDbSymbolTableRecord
100
AcDbLinetypeTableRecord
  2
CENTERTINY
 70
    0
  3
Center (.15x) ___ _ ___ _ ___ _ ___ _ ___ _ ___
 72
   65
 73
    4
 40
7.619999999999999
 49
4.7625
 74
    0
 49
-0.9525
 74
    0
 49
0.9525
 74
    0
 49
-0.9525
 74
    0
  0
LTYPE
  5
48
330
5
100
AcDbSymbolTableRecord
100
AcDbLinetypeTableRecord
  2
CENTER2
 70
    0
  3
Center (.5x) ___ _ ___ _ ___ _ ___ _ ___ _ ___
 72
   65
 73
    4
 40
28.575
 49
19.05
 74
    0
 49
-3.175
 74
    0
 49
3.175
 74
    0
 49
-3.175
 74
    0
  0
LTYPE
  5
49
330
5
100
AcDbSymbolTableRecord
100
AcDbLinetypeTableRecord
  2
CENTERX2
 70
    0
  3
Center (2x) ________  __  ________  __  _____
 72
   65
 73
    4
 40
101.6
 49
63.5
 74
    0
 49
-12.7
 74
    0
 49
12.7
 74
    0
 49
-12.7
 74
    0
  0
ENDTAB
  0
TABLE
  2
LAYER
  5
2
330
0
100
AcDbSymbolTable
 70
    1
  0
LAYER
  5
10
330
2
100
AcDbSymbolTableRecord
100
AcDbLayerTableRecord
  2
0
 70
    0
 62
    7
  6
CONTINUOUS
370
    0
390
F
  0
LAYER
  5
4A
330
2
100
AcDbSymbolTableRecord
100
AcDbLayerTableRecord
  2
BLACK_SCRIBE
 70
    0
 62
    7
  6
CONTINUOUS
370
   -3
390
F
  0
LAYER
  5
4B
330
2
100
AcDbSymbolTableRecord
100
AcDbLayerTableRecord
  2
BLUE_WALLS
 70
    0
 62
    5
  6
CONTINUOUS
370
   -3
390
F
  0
LAYER
  5
4C
330
2
100
AcDbSymbolTableRecord
100
AcDbLayerTableRecord
  2
CABINETS
 70
    0
 62
  251
  6
CONTINUOUS
370
   -3
390
F
  0
LAYER
  5
4D
330
2
100
AcDbSymbolTableRecord
100
AcDbLayerTableRecord
  2
DOTTED_LINE_
 70
    0
 62
   27
  6
DASHED
370
   -3
390
F
  0
LAYER
  5
4E
330
2
100
AcDbSymbolTableRecord
100
AcDbLayerTableRecord
  2
GRAY_SEAM
 70
    0
 62
  253
  6
CONTINUOUS
370
   -3
390
F
  0
LAYER
  5
4F
330
2
100
AcDbSymbolTableRecord
100
AcDbLayerTableRecord
  2
OFFSET
 70
    0
 62
  220
  6
CONTINUOUS
370
   -3
390
F
  0
LAYER
  5
50
330
2
100
AcDbSymbolTableRecord
100
AcDbLayerTableRecord
  2
RED_FLAT_POLISHED
 70
    0
 62
    1
  6
CONTINUOUS
370
   -3
390
F
  0
ENDTAB
  0
TABLE
  2
STYLE
  5
3
330
0
100
AcDbSymbolTable
 70
    3
  0
STYLE
  5
51
330
2
100
AcDbSymbolTableRecord
100
AcDbTextStyleTableRecord
  2
STANDARD
 70
    0
 40
0
 41
1
 50
0
 71
    0
 42
1
  3
STANDARD
  4

  0
ENDTAB
  0
TABLE
  2
VIEW
  5
6
330
0
100
AcDbSymbolTable
 70
    0
  0
ENDTAB
  0
TABLE
  2
UCS
  5
7
330
0
100
AcDbSymbolTable
 70
    0
  0
ENDTAB
  0
TABLE
  2
APPID
  5
9
330
0
100
AcDbSymbolTable
 70
    1
  0
APPID
  5
12
330
9
100
AcDbSymbolTableRecord
100
AcDbRegAppTableRecord
  2
ACAD
 70
    0
  0
APPID
  5
52
330
9
100
AcDbSymbolTableRecord
100
AcDbRegAppTableRecord
  2
LibreCad
 70
    0
  0
ENDTAB
  0
TABLE
  2
DIMSTYLE
  5
A
330
0
100
AcDbSymbolTable
 70
    1
100
AcDbDimStyleTable
 71
    1
  0
DIMSTYLE
105
53
330
A
100
AcDbSymbolTableRecord
100
AcDbDimStyleTableRecord
  2
Standard
 70
    0
 40
1
 41
0.1
 42
0.025
 43
0.38
 44
0.05
 45
0
 46
0
 47
0
 48
0
 49
1
140
0.1
141
0.09
142
2.5
143
25.4
144
1
145
0
146
1
147
0.025
148
0
 71
    0
 72
    0
 73
    0
 74
    1
 75
    0
 76
    0
 77
    0
 78
    1
 79
    0
170
    0
171
    2
172
    0
173
    0
174
    0
175
    0
176
    0
177
    0
178
    0
179
    0
271
    2
272
    4
273
    2
274
    2
275
    0
276
    0
277
    2
278
    0
279
    0
280
    0
281
    0
282
    0
283
    1
284
    0
285
    0
286
    0
288
    0
289
    3
340
standard
341

371
   -2
372
   -2
  0
ENDTAB
  0
TABLE
  2
BLOCK_RECORD
  5
1
330
0
100
AcDbSymbolTable
 70
    2
  0
BLOCK_RECORD
  5
1F
330
1
100
AcDbSymbolTableRecord
100
AcDbBlockTableRecord
  2
*Model_Space
 70
    0
280
    1
281
    0
  0
BLOCK_RECORD
  5
1E
330
1
100
AcDbSymbolTableRecord
100
AcDbBlockTableRecord
  2
*Paper_Space
 70
    0
280
    1
281
    0
  0
ENDTAB
  0
ENDSEC
  0
SECTION
  2
BLOCKS
  0
BLOCK
  5
20
330
1F
100
AcDbEntity
  8
0
100
AcDbBlockBegin
  2
*Model_Space
 70
    0
 10
0
 20
0
 30
0
  3
*Model_Space
  1

  0
ENDBLK
  5
21
330
1F
100
AcDbEntity
  8
0
100
AcDbBlockEnd
  0
BLOCK
  5
1C
330
1B
100
AcDbEntity
  8
0
100
AcDbBlockBegin
  2
*Paper_Space
 70
    0
 10
0
 20
0
 30
0
  3
*Paper_Space
  1

  0
ENDBLK
  5
1D
330
1F
100
AcDbEntity
  8
0
100
AcDbBlockEnd
  0
ENDSEC
  0
SECTION
  2
ENTITIES
  0
POINT
  5
54
100
AcDbEntity
  8
RED_FLAT_POLISHED
  6
ByLayer
 62
    1
370
   -1
100
AcDbPoint
 10
-0.009272819999999999
 20
4.8e-07
  0
LINE
  5
55
100
AcDbEntity
  8
BLUE_WALLS
  6
ByLayer
 62
    5
370
   -1
100
AcDbLine
 10
-11.40509796
 20
15.87559719
 11
-5.3398254
 21
15.87527961
  0
LINE
  5
56
100
AcDbEntity
  8
BLUE_WALLS
  6
ByLayer
 62
    5
370
   -1
100
AcDbLine
 10
-11.40594783
 20
-0.37440279
 11
-5.3406789
 21
-0.37472037
  0
LINE
  5
57
100
AcDbEntity
  8
BLUE_WALLS
  6
ByLayer
 62
    5
370
   -1
100
AcDbLine
 10
11.40590919
 20
-0.37559721
 11
3.34779703
 21
-0.37517529
  0
LINE
  5
58
100
AcDbEntity
  8
BLUE_WALLS
  6
ByLayer
 62
    5
370
   -1
100
AcDbLine
 10
11.40687196
 20
18.12440276
 11
3.34876893
 21
18.12482468
  0
LINE
  5
59
100
AcDbEntity
  8
CABINETS
  6
ByLayer
 62
  251
370
   -1
100
AcDbLine
 10
-11.40600019
 20
-1.37440279
 11
-5.34073127
 21
-1.37472036
  0
LINE
  5
5A
100
AcDbEntity
  8
CABINETS
  6
ByLayer
 62
  251
370
   -1
100
AcDbLine
 10
11.40692431
 20
19.12440275
 11
3.34882128
 21
19.12482468
  0
LINE
  5
5B
100
AcDbEntity
  8
RED_FLAT_POLISHED
  6
ByLayer
 62
    1
370
   -1
100
AcDbLine
 10
11.40685232
 20
17.74940276
 11
3.3487493
 21
17.74982469
  0
LINE
  5
5C
100
AcDbEntity
  8
RED_FLAT_POLISHED
  6
ByLayer
 62
    1
370
   -1
100
AcDbLine
 10
-11.4059282
 20
0.00059721
 11
11.4059282
 21
-0.00059721
  0
LINE
  5
5D
100
AcDbEntity
  8
RED_FLAT_POLISHED
  6
ByLayer
 62
    1
370
   -1
100
AcDbLine
 10
-11.40511759
 20
15.50059719
 11
-0.32560672
 21
15.50001707
  0
LINE
  5
5E
100
AcDbEntity
  8
BLACK_SCRIBE
  6
ByLayer
 62
    7
370
   -1
100
AcDbLine
 10
11.40585683
 20
-1.37559721
 11
3.34774467
 21
-1.37517529
  0
LINE
  5
5F
100
AcDbEntity
  8
BLACK_SCRIBE
  6
ByLayer
 62
    7
370
   -1
100
AcDbLine
 10
-5.34073127
 20
-1.37472036
 11
3.34774467
 21
-1.37517529
  0
LINE
  5
60
100
AcDbEntity
  8
CABINETS
  6
ByLayer
 62
  251
370
   -1
100
AcDbLine
 10
-11.4050456
 20
16.87559719
 11
-0.54841408
 21
16.87502873
  0
LINE
  5
61
100
AcDbEntity
  8
BLACK_SCRIBE
  6
ByLayer
 62
    7
370
   -1
100
AcDbLine
 10
0.55588045
 20
11.16199289
 11
1.80588045
 21
11.16201471
  0
LINE
  5
62
100
AcDbEntity
  8
BLUE_WALLS
  6
ByLayer
 62
    5
370
   -1
100
AcDbLine
 10
0.55591535
 20
9.161992890000001
 11
1.80591535
 21
9.162014709999999
  0
LINE
  5
63
100
AcDbEntity
  8
RED_FLAT_POLISHED
  6
ByLayer
 62
    1
370
   -1
100
AcDbLine
 10
0.55595899
 20
6.66199289
 11
1.80595899
 21
6.66201471
  0
ARC
  5
64
100
AcDbEntity
  8
BLUE_WALLS
  6
ByLayer
 62
    5
370
   -1
100
AcDbCircle
 10
-11.40576457
 20
3.12559721
 40
3.5
100
AcDbArc
 50
185.938604
 51
269.997
  0
ARC
  5
65
100
AcDbEntity
  8
BLUE_WALLS
  6
ByLayer
 62
    5
370
   -1
100
AcDbCircle
 10
-5.34000865
 20
12.37527962
 40
3.5
100
AcDbArc
 50
5.395815
 51
89.997
  0
ARC
  5
66
100
AcDbEntity
  8
BLUE_WALLS
  6
ByLayer
 62
    5
370
   -1
100
AcDbCircle
 10
33.03406067
 20
7.74827035
 40
48.17960579
100
AcDbArc
 50
174.055396
 51
185.938604
  0
ARC
  5
67
100
AcDbEntity
  8
BLUE_WALLS
  6
ByLayer
 62
    5
370
   -1
100
AcDbCircle
 10
-11.40528024
 20
12.3755972
 40
3.5
100
AcDbArc
 50
89.997016
 51
174.055396
  0
ARC
  5
68
100
AcDbEntity
  8
BLUE_WALLS
  6
ByLayer
 62
    5
370
   -1
100
AcDbCircle
 10
-54.27843922
 20
7.75284202
 40
52.65625
100
AcDbArc
 50
354.598185
 51
365.395815
  0
ARC
  5
69
100
AcDbEntity
  8
BLUE_WALLS
  6
ByLayer
 62
    5
370
   -1
100
AcDbCircle
 10
-5.34049299
 20
3.12527963
 40
3.5
100
AcDbArc
 50
269.996957
 51
354.598185
  0
ARC
  5
6A
100
AcDbEntity
  8
BLUE_WALLS
  6
ByLayer
 62
    5
370
   -1
100
AcDbCircle
 10
3.34798029
 20
3.12482471
 40
3.5
100
AcDbArc
 50
184.690921
 51
269.997
  0
ARC
  5
6B
100
AcDbEntity
  8
BLUE_WALLS
  6
ByLayer
 62
    5
370
   -1
100
AcDbCircle
 10
11.40608656
 20
3.12440278
 40
3.5
100
AcDbArc
 50
269.997096
 51
355.585274
  0
ARC
  5
6C
100
AcDbEntity
  8
BLUE_WALLS
  6
ByLayer
 62
    5
370
   -1
100
AcDbCircle
 10
-63.1221303
 20
8.87830507
 40
78.25
100
AcDbArc
 50
355.585274
 51
364.408726
  0
ARC
  5
6D
100
AcDbEntity
  8
BLUE_WALLS
  6
ByLayer
 62
    5
370
   -1
100
AcDbCircle
 10
11.40668869
 20
14.62440276
 40
3.5
100
AcDbArc
 50
4.408726
 51
89.997
  0
ARC
  5
6E
100
AcDbEntity
  8
BLUE_WALLS
  6
ByLayer
 62
    5
370
   -1
100
AcDbCircle
 10
73.37786952
 20
8.871157950000001
 40
73.76525266
100
AcDbArc
 50
175.303079
 51
184.690921
  0
ARC
  5
6F
100
AcDbEntity
  8
BLUE_WALLS
  6
ByLayer
 62
    5
370
   -1
100
AcDbCircle
 10
3.34858242
 20
14.62482469
 40
3.5
100
AcDbArc
 50
89.99694700000001
 51
175.303079
  0
ARC
  5
70
100
AcDbEntity
  8
CABINETS
  6
ByLayer
 62
  251
370
   -1
100
AcDbCircle
 10
33.03406067
 20
7.74827035
 40
49.17960579
100
AcDbArc
 50
174.055396
 51
185.938604
  0
ARC
  5
71
100
AcDbEntity
  8
CABINETS
  6
ByLayer
 62
  251
370
   -1
100
AcDbCircle
 10
-63.1221303
 20
8.87830507
 40
79.25
100
AcDbArc
 50
355.585274
 51
364.408726
  0
ARC
  5
72
100
AcDbEntity
  8
RED_FLAT_POLISHED
  6
ByLayer
 62
    1
370
   -1
100
AcDbCircle
 10
33.03406067
 20
7.74827035
 40
47.80460579
100
AcDbArc
 50
174.055396
 51
185.938604
  0
ARC
  5
73
100
AcDbEntity
  8
RED_FLAT_POLISHED
  6
ByLayer
 62
    1
370
   -1
100
AcDbCircle
 10
-11.40528024
 20
12.3755972
 40
3.125
100
AcDbArc
 50
89.997016
 51
174.055396
  0
ARC
  5
74
100
AcDbEntity
  8
RED_FLAT_POLISHED
  6
ByLayer
 62
    1
370
   -1
100
AcDbCircle
 10
-63.1221303
 20
8.87830507
 40
77.875
100
AcDbArc
 50
355.585274
 51
364.408726
  0
ARC
  5
75
100
AcDbEntity
  8
RED_FLAT_POLISHED
  6
ByLayer
 62
    1
370
   -1
100
AcDbCircle
 10
11.40668869
 20
14.62440276
 40
3.125
100
AcDbArc
 50
4.408726
 51
89.997
  0
ARC
  5
76
100
AcDbEntity
  8
RED_FLAT_POLISHED
  6
ByLayer
 62
    1
370
   -1
100
AcDbCircle
 10
-11.40576457
 20
3.12559721
 40
3.125
100
AcDbArc
 50
185.938604
 51
269.997
  0
ARC
  5
77
100
AcDbEntity
  8
RED_FLAT_POLISHED
  6
ByLayer
 62
    1
370
   -1
100
AcDbCircle
 10
11.40608656
 20
3.12440278
 40
3.125
100
AcDbArc
 50
269.997096
 51
355.585274
  0
ARC
  5
78
100
AcDbEntity
  8
RED_FLAT_POLISHED
  6
ByLayer
 62
    1
370
   -1
100
AcDbCircle
 10
3.34858242
 20
14.62482469
 40
3.125
100
AcDbArc
 50
89.99694700000001
 51
152.961308
  0
ARC
  5
79
100
AcDbEntity
  8
RED_FLAT_POLISHED
  6
ByLayer
 62
    1
370
   -1
100
AcDbCircle
 10
-0.32555401
 20
16.50001706
 40
1
100
AcDbArc
 50
269.99698
 51
332.961308
  0
ARC
  5
7A
100
AcDbEntity
  8
BLACK_SCRIBE
  6
ByLayer
 62
    7
370
   -1
100
AcDbCircle
 10
-11.40528024
 20
12.3755972
 40
4.5
100
AcDbArc
 50
89.997016
 51
174.055396
  0
ARC
  5
7B
100
AcDbEntity
  8
BLACK_SCRIBE
  6
ByLayer
 62
    7
370
   -1
100
AcDbCircle
 10
11.40668869
 20
14.62440276
 40
4.5
100
AcDbArc
 50
4.408726
 51
89.997
  0
ARC
  5
7C
100
AcDbEntity
  8
BLACK_SCRIBE
  6
ByLayer
 62
    7
370
   -1
100
AcDbCircle
 10
11.40608656
 20
3.12440278
 40
4.5
100
AcDbArc
 50
269.997096
 51
355.585274
  0
ARC
  5
7D
100
AcDbEntity
  8
BLACK_SCRIBE
  6
ByLayer
 62
    7
370
   -1
100
AcDbCircle
 10
-11.40576457
 20
3.12559721
 40
4.5
100
AcDbArc
 50
185.938604
 51
269.997
  0
ARC
  5
7E
100
AcDbEntity
  8
BLACK_SCRIBE
  6
ByLayer
 62
    7
370
   -1
100
AcDbCircle
 10
3.34858242
 20
14.62482469
 40
4.5
100
AcDbArc
 50
89.99694700000001
 51
149.997
  0
TEXT
  5
7F
100
AcDbEntity
  8
BLACK_SCRIBE
  6
ByLayer
 62
    7
370
   -1
100
AcDbText
 10
1.64162475
 20
13.5762254
 30
0
 40
1.05
  1
#D40/60Outer LipFlush3/8" Overhang
 50
0
 41
1
 51
0
  7
STANDARD
 71
    0
 11
1.64162475
 21
13.5762254
 31
0
210
0
220
0
230
1
100
AcDbText
 73
    3
  0
ENDSEC
  0
SECTION
  2
OBJECTS
  0
DICTIONARY
  5
C
330
0
100
AcDbDictionary
281
    1
  3
ACAD_GROUP
350
D
  0
DICTIONARY
  5
D
330
C
100
AcDbDictionary
281
    1
  0
PLOTSETTINGS
  5
80
100
AcDbPlotSettings
  6
1x1
 40
0
 41
0
 42
0
 43
0
  0
ENDSEC
  0
EOF
