  0
SECTION
  2
ENTITIES
  0
ARC
  8
APS_GEOMETRY
 10
77.50755
 20
0.328999
 40
92.906565
 50
177.253375
 51
182.746625
  0
ARC
  8
APS_GEOMETRY
 10
-10.547742
 20
-3.8954
 40
4.75
 50
182.746625
 51
267.766108
  0
ARC
  8
APS_GEOMETRY
 10
0.382235
 20
276.299051
 40
285.157552
 50
267.766108
 51
272.233892
  0
ARC
  8
APS_GEOMETRY
 10
11.312212
 20
-3.8954
 40
4.75
 50
272.233892
 51
357.253375
  0
ARC
  8
APS_GEOMETRY
 10
-76.74308
 20
0.328999
 40
92.906565
 50
357.253375
 51
2.746625
  0
ARC
  8
APS_GEOMETRY
 10
11.312212
 20
4.553399
 40
4.75
 50
2.746625
 51
87.766108
  0
ARC
  8
APS_GEOMETRY
 10
0.382235
 20
-275.641053
 40
285.157552
 50
87.766108
 51
92.233892
  0
ARC
  8
APS_GEOMETRY
 10
-10.547742
 20
4.553399
 40
4.75
 50
92.233892
 51
177.253375
  0
ARC
  8
APS_GEOMETRY
 10
0.382235
 20
212.514099
 40
220.3726
 50
267.107044
 51
272.892956
  0
ARC
  8
APS_GEOMETRY
 10
11.31521
 20
-3.83243
 40
3.75
 50
272.892956
 51
357.294348
  0
ARC
  8
APS_GEOMETRY
 10
-76.74308
 20
0.328999
 40
91.906565
 50
357.294348
 51
2.705652
  0
ARC
  8
APS_GEOMETRY
 10
11.31521
 20
4.490429
 40
3.75
 50
2.705652
 51
87.107044
  0
ARC
  8
APS_GEOMETRY
 10
0.382235
 20
-211.856101
 40
220.3726
 50
87.107044
 51
92.892956
  0
ARC
  8
APS_GEOMETRY
 10
-10.55074
 20
4.490429
 40
3.75
 50
92.892956
 51
177.294348
  0
ARC
  8
APS_GEOMETRY
 10
77.50755
 20
0.328999
 40
91.906565
 50
177.294348
 51
182.705652
  0
ARC
  8
APS_GEOMETRY
 10
-10.55074
 20
-3.83243
 40
3.75
 50
182.705652
 51
267.107044
  0
ARC
  8
APS_GEOMETRY
 10
0.382235
 20
212.514099
 40
220.1226
 50
267.107044
 51
272.892956
  0
ARC
  8
APS_GEOMETRY
 10
11.31521
 20
-3.83243
 40
3.5
 50
272.892956
 51
357.294348
  0
ARC
  8
APS_GEOMETRY
 10
-76.74308
 20
0.328999
 40
91.656565
 50
357.294348
 51
2.705652
  0
ARC
  8
APS_GEOMETRY
 10
11.31521
 20
4.490429
 40
3.5
 50
2.705652
 51
87.107044
  0
ARC
  8
APS_GEOMETRY
 10
0.382235
 20
-211.856101
 40
220.1226
 50
87.107044
 51
92.892956
  0
ARC
  8
APS_GEOMETRY
 10
-10.55074
 20
4.490429
 40
3.5
 50
92.892956
 51
177.294348
  0
ARC
  8
APS_GEOMETRY
 10
77.50755
 20
0.328999
 40
91.656565
 50
177.294348
 51
182.705652
  0
ARC
  8
APS_GEOMETRY
 10
-10.55074
 20
-3.83243
 40
3.5
 50
182.705652
 51
267.107044
  0
ENDSEC
  0
EOF
