  0
SECTION
  2
ENTITIES
  0
LINE
  8
APS_GEOMETRY
 10
-6.324308
 11
16.488192
 20
-6.585556
 21
-6.585556
  0
ARC
  8
APS_GEOMETRY
 10
16.488192
 20
-3.085556
 40
3.5
 50
270.0
 51
0.0
  0
LINE
  8
APS_GEOMETRY
 10
19.988192
 11
19.988192
 20
-3.085556
 21
7.914444
  0
ARC
  8
APS_GEOMETRY
 10
16.488192
 20
7.914444
 40
3.5
 50
0.0
 51
90.0
  0
LINE
  8
APS_GEOMETRY
 10
16.488192
 11
-6.324308
 20
11.414444
 21
11.414444
  0
ARC
  8
APS_GEOMETRY
 10
-6.324308
 20
7.914444
 40
3.5
 50
90.0
 51
180.0
  0
LINE
  8
APS_GEOMETRY
 10
-9.824308
 11
-9.824308
 20
7.914444
 21
-3.085556
  0
ARC
  8
APS_GEOMETRY
 10
-6.324308
 20
-3.085556
 40
3.5
 50
180.0
 51
270.0
  0
ARC
  8
APS_GEOMETRY
 10
16.675692
 20
-3.335556
 40
2.25
 50
270.0
 51
0.0
  0
LINE
  8
APS_GEOMETRY
 10
18.925692
 11
18.925692
 20
-3.335556
 21
8.164444
  0
ARC
  8
APS_GEOMETRY
 10
16.675692
 20
8.164444
 40
2.25
 50
0.0
 51
90.0
  0
LINE
  8
APS_GEOMETRY
 10
16.675692
 11
-6.511808
 20
10.414444
 21
10.414444
  0
ARC
  8
APS_GEOMETRY
 10
-6.511808
 20
8.164444
 40
2.25
 50
90.0
 51
180.0
  0
LINE
  8
APS_GEOMETRY
 10
-8.761808
 11
-8.761808
 20
8.164444
 21
-3.335556
  0
ARC
  8
APS_GEOMETRY
 10
-6.511808
 20
-3.335556
 40
2.25
 50
180.0
 51
270.0
  0
LINE
  8
APS_GEOMETRY
 10
-6.511808
 11
16.675692
 20
-5.585556
 21
-5.585556
  0
ARC
  8
APS_GEOMETRY
 10
16.675692
 20
-3.335556
 40
2.0
 50
270.0
 51
0.0
  0
LINE
  8
APS_GEOMETRY
 10
18.675692
 11
18.675692
 20
-3.335556
 21
8.164444
  0
ARC
  8
APS_GEOMETRY
 10
16.675692
 20
8.164444
 40
2.0
 50
0.0
 51
90.0
  0
LINE
  8
APS_GEOMETRY
 10
16.675692
 11
-6.511808
 20
10.164444
 21
10.164444
  0
ARC
  8
APS_GEOMETRY
 10
-6.511808
 20
8.164444
 40
2.0
 50
90.0
 51
180.0
  0
LINE
  8
APS_GEOMETRY
 10
-8.511808
 11
-8.511808
 20
8.164444
 21
-3.335556
  0
ARC
  8
APS_GEOMETRY
 10
-6.511808
 20
-3.335556
 40
2.0
 50
180.0
 51
270.0
  0
LINE
  8
APS_GEOMETRY
 10
-6.511808
 11
16.675692
 20
-5.335556
 21
-5.335556
  0
ENDSEC
  0
EOF
