  0
SECTION
  2
HEADER
  0
ENDSEC
  0
SECTION
  2
TABLES
  0
TABLE
  2
LTYPE
  0
LTYPE
  2
Continuous
 70
0
  3
Solid line
 72
65
 73
0
 40
0.000000
  0
LTYPE
  2
DASHDOT2
 70
0
  3
Dash dot (.5x) _._._._._._._._._._._._._._._.
 72
65
 73
4
 40
0.500000
 49
0.250000
 49
-0.125000
 49
0.000000
 49
-0.125000
  0
LTYPE
  2
DASHED
 70
0
  3
Dashed _ _ _ _ _ _ _ _ _ _ _ _ _ _ _
 72
65
 73
2
 40
0.75
 49
0.5
 49
-0.25
  0
ENDTAB
  0
TABLE
  2
LAYER
  0
LAYER
  2
CABINETS
 70
0
 62
251
  6
DASHED
  0
LAYER
  2
BLUE_WALLS
 70
0
 62
5
  6
CONTINUOUS
  0
LAYER
  2
BLACK_SCRIBE
 70
0
 62
7
  6
CONTINUOUS
  0
LAYER
  2
RED_FLAT_POLISHED
 70
0
 62
1
  6
CONTINUOUS
  0
LAYER
  2
AQUA_BULLNOSE
 70
0
 62
4
  6
CONTINUOUS
  0
LAYER
  2
MAROON_EASED
 70
0
 62
14
  6
CONTINUOUS
  0
LAYER
  2
GREEN_OGEE
 70
0
 62
90
  6
CONTINUOUS
  0
LAYER
  2
ORANGE_BEVELED
 70
0
 62
30
  6
CONTINUOUS
  0
LAYER
  2
YELLOW_ROUGH_CUT
 70
0
 62
2
  6
CONTINUOUS
  0
LAYER
  2
OLIVE_PROFILED_EDGE
 70
0
 62
85
  6
CONTINUOUS
  0
LAYER
  2
ORCHID_OTHER
 70
0
 62
193
  6
CONTINUOUS
  0
LAYER
  2
GRAY_SEAM
 70
0
 62
253
  6
CONTINUOUS
  0
ENDTAB
  0
ENDSEC
  0
SECTION
  2
ENTITIES
  0
LINE
  8
BLUE_WALLS
 10
12.40625
 20
12.8125
 30
0
 11
12.40625
 21
5
 31
0
 62
5
  0
LINE
  8
BLUE_WALLS
 10
-8.40625
 20
1
 30
0
 11
8.40625
 21
1
 31
0
 62
5
  0
LINE
  8
BLUE_WALLS
 10
-12.40625
 20
12.8125
 30
0
 11
-12.40625
 21
5
 31
0
 62
5
  0
LINE
  8
BLUE_WALLS
 10
-8.40625
 20
16.8125
 30
0
 11
8.40625
 21
16.8125
 31
0
 62
5
  0
LINE
  8
RED_FLAT_POLISHED
 10
-8.40625
 20
16.4375
 30
0
 11
8.40625
 21
16.4375
 31
0
 62
1
  0
LINE
  8
RED_FLAT_POLISHED
 10
-12.03125
 20
12.8125
 30
0
 11
-12.03125
 21
5
 31
0
 62
1
  0
LINE
  8
RED_FLAT_POLISHED
 10
-8.40625
 20
1.375
 30
0
 11
8.40625
 21
1.375
 31
0
 62
1
  0
LINE
  8
RED_FLAT_POLISHED
 10
12.03125
 20
12.8125
 30
0
 11
12.03125
 21
5
 31
0
 62
1
  0
LINE
  8
BLUE_WALLS
 10
-13.40625
 20
12.8125
 30
0
 11
-13.40625
 21
5
 31
0
 62
5
  0
LINE
  8
BLUE_WALLS
 10
-8.40625
 20
0
 30
0
 11
8.40625
 21
0
 31
0
 62
5
  0
LINE
  8
BLUE_WALLS
 10
13.40625
 20
12.8125
 30
0
 11
13.40625
 21
5
 31
0
 62
5
  0
LINE
  8
BLUE_WALLS
 10
-8.40625
 20
17.8125
 30
0
 11
8.40625
 21
17.8125
 31
0
 62
5
  0
ARC
  8
BLUE_WALLS
 10
8.40625
 20
12.8125
 30
0
 40
4
 50
0
 51
90
 62
5
  0
ARC
  8
BLUE_WALLS
 10
8.40625
 20
5
 30
0
 40
4
 50
270
 51
360
 62
5
  0
ARC
  8
BLUE_WALLS
 10
-8.40625
 20
5
 30
0
 40
4
 50
180
 51
270
 62
5
  0
ARC
  8
BLUE_WALLS
 10
-8.40625
 20
12.8125
 30
0
 40
4
 50
90
 51
180
 62
5
  0
ARC
  8
RED_FLAT_POLISHED
 10
8.40625
 20
12.8125
 30
0
 40
3.625
 50
0
 51
90
 62
1
  0
ARC
  8
RED_FLAT_POLISHED
 10
-8.40625
 20
12.8125
 30
0
 40
3.625
 50
90
 51
180
 62
1
  0
ARC
  8
RED_FLAT_POLISHED
 10
-8.40625
 20
5
 30
0
 40
3.625
 50
180
 51
270
 62
1
  0
ARC
  8
RED_FLAT_POLISHED
 10
8.40625
 20
5
 30
0
 40
3.625
 50
270
 51
360
 62
1
  0
ARC
  8
BLUE_WALLS
 10
-8.40625
 20
12.8125
 30
0
 40
5
 50
90
 51
180
 62
5
  0
ARC
  8
BLUE_WALLS
 10
-8.40625
 20
5
 30
0
 40
5
 50
180
 51
270
 62
5
  0
ARC
  8
BLUE_WALLS
 10
8.40625
 20
5
 30
0
 40
5
 50
270
 51
360
 62
5
  0
ARC
  8
BLUE_WALLS
 10
8.40625
 20
12.8125
 30
0
 40
5
 50
0
 51
90
 62
5
  0
ENDSEC
  0
EOF
