  0
SECTION
  2
ENTITIES
  0
LINE
  8
APS_GEOMETRY
 10
-9.998799
 11
-9.998799
 20
3.882555
 21
-5.255895
  0
ARC
  8
APS_GEOMETRY
 10
-4.092947
 20
-5.100043
 40
5.907908
 50
181.511653
 51
268.488347
  0
LINE
  8
APS_GEOMETRY
 10
-4.248799
 11
7.391206
 20
-11.005895
 21
-11.005895
  0
ARC
  8
APS_GEOMETRY
 10
7.235354
 20
-5.100043
 40
5.907908
 50
271.511653
 51
358.488347
  0
LINE
  8
APS_GEOMETRY
 10
13.141206
 11
13.141206
 20
-5.255895
 21
3.882555
  0
LINE
  8
APS_GEOMETRY
 10
13.141206
 11
7.561913
 20
3.882555
 21
9.947003
  0
ARC
  8
APS_GEOMETRY
 10
7.423926
 20
9.820055
 40
0.1875
 50
42.614056
 51
90.0
  0
LINE
  8
APS_GEOMETRY
 10
7.423926
 11
-4.281519
 20
10.007555
 21
10.007555
  0
ARC
  8
APS_GEOMETRY
 10
-4.281519
 20
9.820055
 40
0.1875
 50
90.0
 51
137.385944
  0
LINE
  8
APS_GEOMETRY
 10
-4.419507
 11
-9.998799
 20
9.947003
 21
3.882555
  0
ARC
  8
APS_GEOMETRY
 10
-32.194645
 20
-2.207103
 40
44.356589
 50
355.641879
 51
3.808229
  0
ARC
  8
APS_GEOMETRY
 10
7.511803
 20
-5.233155
 40
4.535
 50
274.583459
 51
355.641879
  0
ARC
  8
APS_GEOMETRY
 10
1.57121
 20
68.869074
 40
78.874969
 50
265.415618
 51
274.583459
  0
ARC
  8
APS_GEOMETRY
 10
-4.370577
 20
-5.233059
 40
4.535
 50
185.379961
 51
265.415618
  0
ARC
  8
APS_GEOMETRY
 10
27.237241
 20
-2.256394
 40
36.282671
 50
175.264303
 51
185.379961
  0
ARC
  8
APS_GEOMETRY
 10
0.0
 20
0.0
 40
8.952128
 50
94.040695
 51
175.264303
  0
ARC
  8
APS_GEOMETRY
 10
1.571217
 20
-22.242414
 40
31.249969
 50
85.959326
 51
94.040695
  0
ARC
  8
APS_GEOMETRY
 10
3.295845
 20
0.155293
 40
8.787561
 50
3.808229
 51
86.885844
  0
ARC
  8
APS_GEOMETRY
 10
-32.194645
 20
-2.207103
 40
44.106589
 50
355.641879
 51
3.808229
  0
ARC
  8
APS_GEOMETRY
 10
7.511803
 20
-5.233155
 40
4.285
 50
274.583459
 51
355.641879
  0
ARC
  8
APS_GEOMETRY
 10
1.57121
 20
68.869074
 40
78.624969
 50
265.415618
 51
274.583459
  0
ARC
  8
APS_GEOMETRY
 10
-4.370577
 20
-5.233059
 40
4.285
 50
185.379961
 51
265.415618
  0
ARC
  8
APS_GEOMETRY
 10
27.237241
 20
-2.256394
 40
36.032671
 50
175.264303
 51
185.379961
  0
ARC
  8
APS_GEOMETRY
 10
0.0
 20
0.0
 40
8.702128
 50
94.040695
 51
175.264303
  0
ARC
  8
APS_GEOMETRY
 10
1.571217
 20
-22.242414
 40
30.999969
 50
85.955571
 51
94.040695
  0
ARC
  8
APS_GEOMETRY
 10
3.295845
 20
0.155293
 40
8.537561
 50
3.808229
 51
86.899339
  0
ENDSEC
  0
EOF
