  0
SECTION
  2
ENTITIES
  0
LINE
  8
APS_GEOMETRY
 10
-4.316921
 11
9.058079
 20
-5.641406
 21
-5.641406
  0
ARC
  8
APS_GEOMETRY
 10
9.058079
 20
-0.641406
 40
5.0
 50
270.0
 51
360.0
  0
LINE
  8
APS_GEOMETRY
 10
14.058079
 11
14.058079
 20
-0.641406
 21
7.171094
  0
ARC
  8
APS_GEOMETRY
 10
9.058079
 20
7.171094
 40
5.0
 50
360.0
 51
90.0
  0
LINE
  8
APS_GEOMETRY
 10
9.058079
 11
-4.316921
 20
12.171094
 21
12.171094
  0
ARC
  8
APS_GEOMETRY
 10
-4.316921
 20
7.171094
 40
5.0
 50
90.0
 51
180.0
  0
LINE
  8
APS_GEOMETRY
 10
-9.316921
 11
-9.316921
 20
7.171094
 21
-0.641406
  0
ARC
  8
APS_GEOMETRY
 10
-4.316921
 20
-0.641406
 40
5.0
 50
180.0
 51
270.0
  0
ARC
  8
APS_GEOMETRY
 10
2.370579
 20
354.596094
 40
359.20625
 50
268.92496
 51
271.07504
  0
ARC
  8
APS_GEOMETRY
 10
9.034919
 20
-0.547632
 40
4.0
 50
271.07504
 51
359.303879
  0
ARC
  8
APS_GEOMETRY
 10
-304.744004
 20
3.264844
 40
317.802083
 50
359.303879
 51
0.696121
  0
ARC
  8
APS_GEOMETRY
 10
9.034919
 20
7.077321
 40
4.0
 50
0.696121
 51
88.92496
  0
ARC
  8
APS_GEOMETRY
 10
2.370579
 20
-348.066406
 40
359.20625
 50
88.92496
 51
91.07504
  0
ARC
  8
APS_GEOMETRY
 10
-4.29376
 20
7.077321
 40
4.0
 50
91.07504
 51
179.303879
  0
ARC
  8
APS_GEOMETRY
 10
309.485163
 20
3.264844
 40
317.802083
 50
179.303879
 51
180.696121
  0
ARC
  8
APS_GEOMETRY
 10
-4.29376
 20
-0.547632
 40
4.0
 50
180.696121
 51
268.92496
  0
ARC
  8
APS_GEOMETRY
 10
2.370579
 20
354.596094
 40
358.95625
 50
268.92496
 51
271.07504
  0
ARC
  8
APS_GEOMETRY
 10
9.034919
 20
-0.547632
 40
3.75
 50
271.07504
 51
359.303879
  0
ARC
  8
APS_GEOMETRY
 10
-304.744004
 20
3.264844
 40
317.552083
 50
359.303879
 51
0.696121
  0
ARC
  8
APS_GEOMETRY
 10
9.034919
 20
7.077321
 40
3.75
 50
0.696121
 51
88.92496
  0
ARC
  8
APS_GEOMETRY
 10
2.370579
 20
-348.066406
 40
358.95625
 50
88.92496
 51
91.07504
  0
ARC
  8
APS_GEOMETRY
 10
-4.29376
 20
7.077321
 40
3.75
 50
91.07504
 51
179.303879
  0
ARC
  8
APS_GEOMETRY
 10
309.485163
 20
3.264844
 40
317.552083
 50
179.303879
 51
180.696121
  0
ARC
  8
APS_GEOMETRY
 10
-4.29376
 20
-0.547632
 40
3.75
 50
180.696121
 51
268.92496
  0
ENDSEC
  0
EOF
