  0
SECTION
  2
ENTITIES
  0
ARC
  8
APS_GEOMETRY
 10
94.745723
 20
0.060406
 40
100.343664
 50
177.265913
 51
178.85301
  0
LINE
  8
APS_GEOMETRY
 10
-5.483717
 11
-5.411622
 20
4.846869
 21
6.753684
  0
ARC
  8
APS_GEOMETRY
 10
-0.860489
 20
6.636228
 40
4.552648
 50
93.409877
 51
178.521627
  0
ARC
  8
APS_GEOMETRY
 10
2.613895
 20
-35.402159
 40
46.733285
 50
90.9088
 51
94.596568
  0
ARC
  8
APS_GEOMETRY
 10
1.131433
 20
-35.402159
 40
46.733285
 50
85.403432
 51
89.0912
  0
ARC
  8
APS_GEOMETRY
 10
4.605817
 20
6.636228
 40
4.552648
 50
1.478373
 51
86.590123
  0
LINE
  8
APS_GEOMETRY
 10
9.15695
 11
9.229045
 20
6.753684
 21
4.846869
  0
ARC
  8
APS_GEOMETRY
 10
-91.000395
 20
0.060406
 40
100.343664
 50
1.14699
 51
2.734087
  0
ARC
  8
APS_GEOMETRY
 10
-91.000395
 20
4.077646
 40
100.343664
 50
357.265913
 51
358.85301
  0
LINE
  8
APS_GEOMETRY
 10
9.229045
 11
9.15695
 20
-0.708817
 21
-2.615632
  0
ARC
  8
APS_GEOMETRY
 10
4.605817
 20
-2.498176
 40
4.552648
 50
273.409877
 51
358.521627
  0
ARC
  8
APS_GEOMETRY
 10
1.131433
 20
39.540211
 40
46.733285
 50
270.9088
 51
274.596568
  0
ARC
  8
APS_GEOMETRY
 10
2.613895
 20
39.540211
 40
46.733285
 50
265.403432
 51
269.0912
  0
ARC
  8
APS_GEOMETRY
 10
-0.860489
 20
-2.498176
 40
4.552648
 50
181.478373
 51
266.590123
  0
LINE
  8
APS_GEOMETRY
 10
-5.411622
 11
-5.483717
 20
-2.615632
 21
-0.708817
  0
ARC
  8
APS_GEOMETRY
 10
94.745723
 20
4.077646
 40
100.343664
 50
181.14699
 51
182.734087
  0
ARC
  8
APS_GEOMETRY
 10
81.98944
 20
2.071157
 40
86.536237
 50
177.878162
 51
180.001411
  0
ARC
  8
APS_GEOMETRY
 10
260.990128
 20
2.071157
 40
265.496925
 50
179.077824
 51
179.308548
  0
ARC
  8
APS_GEOMETRY
 10
-0.652122
 20
6.428787
 40
3.821225
 50
88.294615
 51
181.269178
  0
ARC
  8
APS_GEOMETRY
 10
1.868253
 20
-47.20153
 40
57.500237
 50
89.995605
 51
92.398798
  0
ARC
  8
APS_GEOMETRY
 10
1.877075
 20
-47.20153
 40
57.500237
 50
87.601202
 51
90.004395
  0
ARC
  8
APS_GEOMETRY
 10
4.39745
 20
6.428787
 40
3.821225
 50
358.730822
 51
91.705385
  0
ARC
  8
APS_GEOMETRY
 10
-257.2448
 20
2.071157
 40
265.496925
 50
0.691452
 51
0.922176
  0
ARC
  8
APS_GEOMETRY
 10
-78.244112
 20
2.071157
 40
86.536237
 50
359.998589
 51
2.121838
  0
ARC
  8
APS_GEOMETRY
 10
-78.244112
 20
2.066895
 40
86.536237
 50
357.878162
 51
0.001411
  0
ARC
  8
APS_GEOMETRY
 10
-257.2448
 20
2.066895
 40
265.496925
 50
359.077824
 51
359.308548
  0
ARC
  8
APS_GEOMETRY
 10
4.39745
 20
-2.290735
 40
3.821225
 50
268.294615
 51
1.269178
  0
ARC
  8
APS_GEOMETRY
 10
1.877075
 20
51.339582
 40
57.500237
 50
269.995605
 51
272.398798
  0
ARC
  8
APS_GEOMETRY
 10
1.868253
 20
51.339582
 40
57.500237
 50
267.601202
 51
270.004395
  0
ARC
  8
APS_GEOMETRY
 10
-0.652122
 20
-2.290735
 40
3.821225
 50
178.730822
 51
271.705385
  0
ARC
  8
APS_GEOMETRY
 10
260.990128
 20
2.066895
 40
265.496925
 50
180.691452
 51
180.922176
  0
ARC
  8
APS_GEOMETRY
 10
81.98944
 20
2.066895
 40
86.536237
 50
179.998589
 51
182.121838
  0
ARC
  8
APS_GEOMETRY
 10
81.98944
 20
2.071157
 40
86.286237
 50
177.876091
 51
180.001415
  0
ARC
  8
APS_GEOMETRY
 10
260.990128
 20
2.071157
 40
265.246925
 50
179.076774
 51
179.309223
  0
ARC
  8
APS_GEOMETRY
 10
-0.652122
 20
6.428787
 40
3.571225
 50
88.153169
 51
181.34461
  0
ARC
  8
APS_GEOMETRY
 10
1.868253
 20
-47.20153
 40
57.250237
 50
89.995585
 51
92.407905
  0
ARC
  8
APS_GEOMETRY
 10
1.877075
 20
-47.20153
 40
57.250237
 50
87.592095
 51
90.004415
  0
ARC
  8
APS_GEOMETRY
 10
4.39745
 20
6.428787
 40
3.571225
 50
358.65539
 51
91.846831
  0
ARC
  8
APS_GEOMETRY
 10
-257.2448
 20
2.071157
 40
265.246925
 50
0.690777
 51
0.923226
  0
ARC
  8
APS_GEOMETRY
 10
-78.244112
 20
2.071157
 40
86.286237
 50
359.998585
 51
2.123909
  0
ARC
  8
APS_GEOMETRY
 10
-78.244112
 20
2.066895
 40
86.286237
 50
357.876091
 51
0.001415
  0
ARC
  8
APS_GEOMETRY
 10
-257.2448
 20
2.066895
 40
265.246925
 50
359.076774
 51
359.309223
  0
ARC
  8
APS_GEOMETRY
 10
4.39745
 20
-2.290735
 40
3.571225
 50
268.153169
 51
1.34461
  0
ARC
  8
APS_GEOMETRY
 10
1.877075
 20
51.339582
 40
57.250237
 50
269.995585
 51
272.407905
  0
ARC
  8
APS_GEOMETRY
 10
1.868253
 20
51.339582
 40
57.250237
 50
267.592095
 51
270.004415
  0
ARC
  8
APS_GEOMETRY
 10
-0.652122
 20
-2.290735
 40
3.571225
 50
178.65539
 51
271.846831
  0
ARC
  8
APS_GEOMETRY
 10
260.990128
 20
2.066895
 40
265.246925
 50
180.690777
 51
180.923226
  0
ARC
  8
APS_GEOMETRY
 10
81.98944
 20
2.066895
 40
86.286237
 50
179.998585
 51
182.123909
  0
ENDSEC
  0
EOF
