  0
SECTION
  2
ENTITIES
  0
LINE
  8
CONSTRUCTION
 10
-7.949937
 11
-7.949937
 20
6.104846
 21
-4.36573
  0
LINE
  8
CONSTRUCTION
 10
-7.949937
 11
-5.216475
 20
-4.36573
 21
-7.099192
  0
LINE
  8
CONSTRUCTION
 10
-5.216475
 11
7.129101
 20
-7.099192
 21
-7.099192
  0
LINE
  8
CONSTRUCTION
 10
7.129101
 11
9.862563
 20
-7.099192
 21
-4.36573
  0
LINE
  8
CONSTRUCTION
 10
9.862563
 11
9.862563
 20
-4.36573
 21
6.104846
  0
LINE
  8
CONSTRUCTION
 10
9.862563
 11
7.129101
 20
6.104846
 21
8.838308
  0
LINE
  8
CONSTRUCTION
 10
7.129101
 11
-5.216475
 20
8.838308
 21
8.838308
  0
LINE
  8
CONSTRUCTION
 10
-5.216475
 11
-7.949937
 20
8.838308
 21
6.104846
  0
ARC
  8
APS_GEOMETRY
 10
0.956313
 20
96.733667
 40
102.83286
 50
267.593664
 51
272.406336
  0
ARC
  8
APS_GEOMETRY
 10
5.117731
 20
-2.292993
 40
3.7188
 50
272.406336
 51
356.792964
  0
ARC
  8
APS_GEOMETRY
 10
-51.324264
 20
0.869558
 40
60.249328
 50
356.792964
 51
3.207036
  0
ARC
  8
APS_GEOMETRY
 10
5.117731
 20
4.032108
 40
3.7188
 50
3.207036
 51
87.593664
  0
ARC
  8
APS_GEOMETRY
 10
0.956313
 20
-94.994552
 40
102.83286
 50
87.593664
 51
92.406336
  0
ARC
  8
APS_GEOMETRY
 10
-3.205105
 20
4.032108
 40
3.7188
 50
92.406336
 51
176.792964
  0
ARC
  8
APS_GEOMETRY
 10
53.236891
 20
0.869558
 40
60.249328
 50
176.792964
 51
183.207036
  0
ARC
  8
APS_GEOMETRY
 10
-3.205105
 20
-2.292993
 40
3.7188
 50
183.207036
 51
267.593664
  0
ARC
  8
APS_GEOMETRY
 10
0.956313
 20
96.733667
 40
102.58286
 50
267.593664
 51
272.406336
  0
ARC
  8
APS_GEOMETRY
 10
5.117731
 20
-2.292993
 40
3.4688
 50
272.406336
 51
356.792964
  0
ARC
  8
APS_GEOMETRY
 10
-51.324264
 20
0.869558
 40
59.999328
 50
356.792964
 51
3.207036
  0
ARC
  8
APS_GEOMETRY
 10
5.117731
 20
4.032108
 40
3.4688
 50
3.207036
 51
87.593664
  0
ARC
  8
APS_GEOMETRY
 10
0.956313
 20
-94.994552
 40
102.58286
 50
87.593664
 51
92.406336
  0
ARC
  8
APS_GEOMETRY
 10
-3.205105
 20
4.032108
 40
3.4688
 50
92.406336
 51
176.792964
  0
ARC
  8
APS_GEOMETRY
 10
53.236891
 20
0.869558
 40
59.999328
 50
176.792964
 51
183.207036
  0
ARC
  8
APS_GEOMETRY
 10
-3.205105
 20
-2.292993
 40
3.4688
 50
183.207036
 51
267.593664
  0
ENDSEC
  0
EOF
