  0
SECTION
  2
ENTITIES
  0
ARC
  8
APS_GEOMETRY
 10
-2.329786
 20
1.713828
 40
4.720428
 50
90.54767
 51
180.913154
  0
ARC
  8
APS_GEOMETRY
 10
0.481635
 20
-105.579643
 40
112.050101
 50
88.539175
 51
91.460825
  0
ARC
  8
APS_GEOMETRY
 10
3.293057
 20
1.713828
 40
4.720428
 50
359.086846
 51
89.45233
  0
LINE
  8
APS_GEOMETRY
 10
8.012885
 11
8.012885
 20
1.638599
 21
-1.385184
  0
ARC
  8
APS_GEOMETRY
 10
3.293057
 20
-1.460413
 40
4.720428
 50
270.54767
 51
0.913154
  0
ARC
  8
APS_GEOMETRY
 10
0.481635
 20
105.833058
 40
112.050101
 50
268.539175
 51
271.460825
  0
ARC
  8
APS_GEOMETRY
 10
-2.329786
 20
-1.460413
 40
4.720428
 50
179.086846
 51
269.45233
  0
LINE
  8
APS_GEOMETRY
 10
-7.049615
 11
-7.049615
 20
-1.385184
 21
1.638599
  0
ARC
  8
APS_GEOMETRY
 10
-2.354644
 20
1.738085
 40
3.696273
 50
92.378752
 51
181.521036
  0
ARC
  8
APS_GEOMETRY
 10
0.481635
 20
-57.849389
 40
63.351147
 50
87.295069
 51
92.704931
  0
ARC
  8
APS_GEOMETRY
 10
3.317915
 20
1.738085
 40
3.696273
 50
358.478964
 51
87.621248
  0
LINE
  8
APS_GEOMETRY
 10
7.012885
 11
7.012885
 20
1.639971
 21
-1.386557
  0
ARC
  8
APS_GEOMETRY
 10
3.317915
 20
-1.48467
 40
3.696273
 50
272.378752
 51
1.521036
  0
ARC
  8
APS_GEOMETRY
 10
0.481635
 20
58.102804
 40
63.351147
 50
267.295069
 51
272.704931
  0
ARC
  8
APS_GEOMETRY
 10
-2.354644
 20
-1.48467
 40
3.696273
 50
178.478964
 51
267.621248
  0
LINE
  8
APS_GEOMETRY
 10
-6.049615
 11
-6.049615
 20
-1.386557
 21
1.639971
  0
ARC
  8
APS_GEOMETRY
 10
-2.354644
 20
1.738085
 40
3.446273
 50
92.367116
 51
181.575244
  0
ARC
  8
APS_GEOMETRY
 10
0.481635
 20
-57.849389
 40
63.101147
 50
87.294412
 51
92.705588
  0
ARC
  8
APS_GEOMETRY
 10
3.317915
 20
1.738085
 40
3.446273
 50
358.424756
 51
87.632884
  0
LINE
  8
APS_GEOMETRY
 10
6.762885
 11
6.762885
 20
1.643348
 21
-1.389933
  0
ARC
  8
APS_GEOMETRY
 10
3.317915
 20
-1.48467
 40
3.446273
 50
272.367116
 51
1.575244
  0
ARC
  8
APS_GEOMETRY
 10
0.481635
 20
58.102804
 40
63.101147
 50
267.294412
 51
272.705588
  0
ARC
  8
APS_GEOMETRY
 10
-2.354644
 20
-1.48467
 40
3.446273
 50
178.424756
 51
267.632884
  0
LINE
  8
APS_GEOMETRY
 10
-5.799615
 11
-5.799615
 20
-1.389933
 21
1.643348
  0
ENDSEC
  0
EOF
